ISO-10303-21;
HEADER;
/* Generated by software containing ST-Developer
 * from STEP Tools, Inc. (www.steptools.com) 
 */
/* OPTION: using custom renumber hook */

FILE_DESCRIPTION(
/* description */ ('STEP AP214'),
/* implementation_level */ '2;1');

FILE_NAME(
/* name */ 'CRPN63-2ZR',
/* time_stamp */ '2024-08-06T11:34:12+02:00',
/* author */ ('License CC BY-ND 4.0'),
/* organization */ ('CADENAS'),
/* preprocessor_version */ 'ST-DEVELOPER v19.3',
/* originating_system */ 'PARTsolutions',
/* authorisation */ '  ');

FILE_SCHEMA (('AUTOMOTIVE_DESIGN {1 0 10303 214 3 1 1}'));
ENDSEC;

DATA;
#10=PROPERTY_DEFINITION_REPRESENTATION(#14,#12);
#11=PROPERTY_DEFINITION_REPRESENTATION(#15,#13);
#12=REPRESENTATION('',(#16),#595);
#13=REPRESENTATION('',(#17),#595);
#14=PROPERTY_DEFINITION('pmi validation property','',#600);
#15=PROPERTY_DEFINITION('pmi validation property','',#600);
#16=VALUE_REPRESENTATION_ITEM('number of annotations',COUNT_MEASURE(0.));
#17=VALUE_REPRESENTATION_ITEM('number of views',COUNT_MEASURE(0.));
#18=SHAPE_REPRESENTATION_RELATIONSHIP('','',#355,#19);
#19=ADVANCED_BREP_SHAPE_REPRESENTATION('',(#353),#595);
#20=VERTEX_LOOP('',#203);
#21=CYLINDRICAL_SURFACE('',#393,9.);
#22=CYLINDRICAL_SURFACE('',#396,3.3235);
#23=SPHERICAL_SURFACE('',#379,41.0000000000023);
#24=TOROIDAL_SURFACE('',#363,22.0564025008423,2.);
#25=TOROIDAL_SURFACE('',#365,15.85,9.);
#26=TOROIDAL_SURFACE('',#367,22.0564025008423,1.99999999999999);
#27=CONICAL_SURFACE('',#359,17.,1.39712512845332);
#28=CONICAL_SURFACE('',#371,19.85,1.39712512845329);
#29=CONICAL_SURFACE('',#375,12.,1.34843776533767);
#30=CONICAL_SURFACE('',#391,8.,0.785398163397449);
#31=CONICAL_SURFACE('',#394,4.,0.785398163397448);
#32=CONICAL_SURFACE('',#398,3.3235,1.02974425867665);
#33=LINE('',#507,#51);
#34=LINE('',#510,#52);
#35=LINE('',#512,#53);
#36=LINE('',#514,#54);
#37=LINE('',#516,#55);
#38=LINE('',#518,#56);
#39=LINE('',#551,#57);
#40=LINE('',#553,#58);
#41=LINE('',#555,#59);
#42=LINE('',#557,#60);
#43=LINE('',#559,#61);
#44=LINE('',#561,#62);
#45=LINE('',#563,#63);
#46=LINE('',#565,#64);
#47=LINE('',#567,#65);
#48=LINE('',#569,#66);
#49=LINE('',#571,#67);
#50=LINE('',#573,#68);
#51=VECTOR('',#405,1000.);
#52=VECTOR('',#406,1000.);
#53=VECTOR('',#407,1000.);
#54=VECTOR('',#408,1000.);
#55=VECTOR('',#409,1000.);
#56=VECTOR('',#410,1000.);
#57=VECTOR('',#455,1000.);
#58=VECTOR('',#456,1000.);
#59=VECTOR('',#457,1000.);
#60=VECTOR('',#460,1000.);
#61=VECTOR('',#461,1000.);
#62=VECTOR('',#464,1000.);
#63=VECTOR('',#465,1000.);
#64=VECTOR('',#468,1000.);
#65=VECTOR('',#469,1000.);
#66=VECTOR('',#472,1000.);
#67=VECTOR('',#473,1000.);
#68=VECTOR('',#476,1000.);
#69=ORIENTED_EDGE('',*,*,#139,.F.);
#70=ORIENTED_EDGE('',*,*,#140,.T.);
#71=ORIENTED_EDGE('',*,*,#141,.T.);
#72=ORIENTED_EDGE('',*,*,#142,.T.);
#73=ORIENTED_EDGE('',*,*,#143,.T.);
#74=ORIENTED_EDGE('',*,*,#144,.T.);
#75=ORIENTED_EDGE('',*,*,#145,.T.);
#76=ORIENTED_EDGE('',*,*,#146,.F.);
#77=ORIENTED_EDGE('',*,*,#139,.T.);
#78=ORIENTED_EDGE('',*,*,#147,.F.);
#79=ORIENTED_EDGE('',*,*,#146,.T.);
#80=ORIENTED_EDGE('',*,*,#148,.F.);
#81=ORIENTED_EDGE('',*,*,#147,.T.);
#82=ORIENTED_EDGE('',*,*,#148,.T.);
#83=ORIENTED_EDGE('',*,*,#149,.F.);
#84=ORIENTED_EDGE('',*,*,#150,.F.);
#85=ORIENTED_EDGE('',*,*,#149,.T.);
#86=ORIENTED_EDGE('',*,*,#151,.F.);
#87=ORIENTED_EDGE('',*,*,#150,.T.);
#88=ORIENTED_EDGE('',*,*,#152,.F.);
#89=ORIENTED_EDGE('',*,*,#151,.T.);
#90=ORIENTED_EDGE('',*,*,#153,.F.);
#91=ORIENTED_EDGE('',*,*,#152,.T.);
#92=ORIENTED_EDGE('',*,*,#154,.F.);
#93=ORIENTED_EDGE('',*,*,#153,.T.);
#94=ORIENTED_EDGE('',*,*,#155,.F.);
#95=ORIENTED_EDGE('',*,*,#154,.T.);
#96=ORIENTED_EDGE('',*,*,#155,.T.);
#97=ORIENTED_EDGE('',*,*,#141,.F.);
#98=ORIENTED_EDGE('',*,*,#156,.F.);
#99=ORIENTED_EDGE('',*,*,#157,.T.);
#100=ORIENTED_EDGE('',*,*,#158,.T.);
#101=ORIENTED_EDGE('',*,*,#142,.F.);
#102=ORIENTED_EDGE('',*,*,#158,.F.);
#103=ORIENTED_EDGE('',*,*,#159,.T.);
#104=ORIENTED_EDGE('',*,*,#160,.T.);
#105=ORIENTED_EDGE('',*,*,#143,.F.);
#106=ORIENTED_EDGE('',*,*,#160,.F.);
#107=ORIENTED_EDGE('',*,*,#161,.T.);
#108=ORIENTED_EDGE('',*,*,#162,.T.);
#109=ORIENTED_EDGE('',*,*,#144,.F.);
#110=ORIENTED_EDGE('',*,*,#162,.F.);
#111=ORIENTED_EDGE('',*,*,#163,.T.);
#112=ORIENTED_EDGE('',*,*,#164,.T.);
#113=ORIENTED_EDGE('',*,*,#145,.F.);
#114=ORIENTED_EDGE('',*,*,#164,.F.);
#115=ORIENTED_EDGE('',*,*,#165,.T.);
#116=ORIENTED_EDGE('',*,*,#166,.T.);
#117=ORIENTED_EDGE('',*,*,#140,.F.);
#118=ORIENTED_EDGE('',*,*,#166,.F.);
#119=ORIENTED_EDGE('',*,*,#167,.T.);
#120=ORIENTED_EDGE('',*,*,#156,.T.);
#121=ORIENTED_EDGE('',*,*,#168,.T.);
#122=ORIENTED_EDGE('',*,*,#157,.F.);
#123=ORIENTED_EDGE('',*,*,#167,.F.);
#124=ORIENTED_EDGE('',*,*,#165,.F.);
#125=ORIENTED_EDGE('',*,*,#163,.F.);
#126=ORIENTED_EDGE('',*,*,#161,.F.);
#127=ORIENTED_EDGE('',*,*,#159,.F.);
#128=ORIENTED_EDGE('',*,*,#169,.F.);
#129=ORIENTED_EDGE('',*,*,#170,.T.);
#130=ORIENTED_EDGE('',*,*,#171,.F.);
#131=ORIENTED_EDGE('',*,*,#169,.T.);
#132=ORIENTED_EDGE('',*,*,#168,.F.);
#133=ORIENTED_EDGE('',*,*,#171,.T.);
#134=ORIENTED_EDGE('',*,*,#172,.T.);
#135=ORIENTED_EDGE('',*,*,#170,.F.);
#136=ORIENTED_EDGE('',*,*,#173,.T.);
#137=ORIENTED_EDGE('',*,*,#172,.F.);
#138=ORIENTED_EDGE('',*,*,#173,.F.);
#139=EDGE_CURVE('',#174,#174,#204,.T.);
#140=EDGE_CURVE('',#175,#176,#33,.T.);
#141=EDGE_CURVE('',#176,#177,#34,.T.);
#142=EDGE_CURVE('',#177,#178,#35,.T.);
#143=EDGE_CURVE('',#178,#179,#36,.T.);
#144=EDGE_CURVE('',#179,#180,#37,.T.);
#145=EDGE_CURVE('',#180,#175,#38,.T.);
#146=EDGE_CURVE('',#181,#181,#205,.T.);
#147=EDGE_CURVE('',#182,#182,#206,.T.);
#148=EDGE_CURVE('',#183,#183,#207,.T.);
#149=EDGE_CURVE('',#184,#184,#208,.T.);
#150=EDGE_CURVE('',#185,#185,#209,.T.);
#151=EDGE_CURVE('',#186,#186,#210,.T.);
#152=EDGE_CURVE('',#187,#187,#211,.T.);
#153=EDGE_CURVE('',#188,#188,#212,.T.);
#154=EDGE_CURVE('',#189,#189,#213,.T.);
#155=EDGE_CURVE('',#190,#190,#214,.T.);
#156=EDGE_CURVE('',#191,#176,#39,.T.);
#157=EDGE_CURVE('',#191,#192,#40,.T.);
#158=EDGE_CURVE('',#192,#177,#41,.T.);
#159=EDGE_CURVE('',#192,#193,#42,.T.);
#160=EDGE_CURVE('',#193,#178,#43,.T.);
#161=EDGE_CURVE('',#193,#194,#44,.T.);
#162=EDGE_CURVE('',#194,#179,#45,.T.);
#163=EDGE_CURVE('',#194,#195,#46,.T.);
#164=EDGE_CURVE('',#195,#180,#47,.T.);
#165=EDGE_CURVE('',#195,#196,#48,.T.);
#166=EDGE_CURVE('',#196,#175,#49,.T.);
#167=EDGE_CURVE('',#196,#191,#50,.T.);
#168=EDGE_CURVE('',#197,#197,#215,.T.);
#169=EDGE_CURVE('',#198,#198,#216,.T.);
#170=EDGE_CURVE('',#199,#199,#217,.T.);
#171=EDGE_CURVE('',#200,#200,#218,.T.);
#172=EDGE_CURVE('',#201,#201,#219,.T.);
#173=EDGE_CURVE('',#202,#202,#220,.T.);
#174=VERTEX_POINT('',#506);
#175=VERTEX_POINT('',#508);
#176=VERTEX_POINT('',#509);
#177=VERTEX_POINT('',#511);
#178=VERTEX_POINT('',#513);
#179=VERTEX_POINT('',#515);
#180=VERTEX_POINT('',#517);
#181=VERTEX_POINT('',#521);
#182=VERTEX_POINT('',#524);
#183=VERTEX_POINT('',#527);
#184=VERTEX_POINT('',#530);
#185=VERTEX_POINT('',#533);
#186=VERTEX_POINT('',#536);
#187=VERTEX_POINT('',#539);
#188=VERTEX_POINT('',#542);
#189=VERTEX_POINT('',#545);
#190=VERTEX_POINT('',#548);
#191=VERTEX_POINT('',#552);
#192=VERTEX_POINT('',#554);
#193=VERTEX_POINT('',#558);
#194=VERTEX_POINT('',#562);
#195=VERTEX_POINT('',#566);
#196=VERTEX_POINT('',#570);
#197=VERTEX_POINT('',#576);
#198=VERTEX_POINT('',#579);
#199=VERTEX_POINT('',#581);
#200=VERTEX_POINT('',#584);
#201=VERTEX_POINT('',#588);
#202=VERTEX_POINT('',#591);
#203=VERTEX_POINT('',#593);
#204=CIRCLE('',#358,17.);
#205=CIRCLE('',#360,19.85);
#206=CIRCLE('',#362,20.0664568416279);
#207=CIRCLE('',#364,22.0223172309919);
#208=CIRCLE('',#366,22.0223172309919);
#209=CIRCLE('',#368,20.0664568416279);
#210=CIRCLE('',#370,19.85);
#211=CIRCLE('',#372,17.);
#212=CIRCLE('',#374,12.);
#213=CIRCLE('',#376,9.78856208386246);
#214=CIRCLE('',#378,6.98856208386246);
#215=CIRCLE('',#387,9.);
#216=CIRCLE('',#389,8.);
#217=CIRCLE('',#390,4.);
#218=CIRCLE('',#392,9.);
#219=CIRCLE('',#395,3.3235);
#220=CIRCLE('',#397,3.3235);
#221=EDGE_LOOP('',(#69));
#222=EDGE_LOOP('',(#70,#71,#72,#73,#74,#75));
#223=EDGE_LOOP('',(#76));
#224=EDGE_LOOP('',(#77));
#225=EDGE_LOOP('',(#78));
#226=EDGE_LOOP('',(#79));
#227=EDGE_LOOP('',(#80));
#228=EDGE_LOOP('',(#81));
#229=EDGE_LOOP('',(#82));
#230=EDGE_LOOP('',(#83));
#231=EDGE_LOOP('',(#84));
#232=EDGE_LOOP('',(#85));
#233=EDGE_LOOP('',(#86));
#234=EDGE_LOOP('',(#87));
#235=EDGE_LOOP('',(#88));
#236=EDGE_LOOP('',(#89));
#237=EDGE_LOOP('',(#90));
#238=EDGE_LOOP('',(#91));
#239=EDGE_LOOP('',(#92));
#240=EDGE_LOOP('',(#93));
#241=EDGE_LOOP('',(#94));
#242=EDGE_LOOP('',(#95));
#243=EDGE_LOOP('',(#96));
#244=EDGE_LOOP('',(#97,#98,#99,#100));
#245=EDGE_LOOP('',(#101,#102,#103,#104));
#246=EDGE_LOOP('',(#105,#106,#107,#108));
#247=EDGE_LOOP('',(#109,#110,#111,#112));
#248=EDGE_LOOP('',(#113,#114,#115,#116));
#249=EDGE_LOOP('',(#117,#118,#119,#120));
#250=EDGE_LOOP('',(#121));
#251=EDGE_LOOP('',(#122,#123,#124,#125,#126,#127));
#252=EDGE_LOOP('',(#128));
#253=EDGE_LOOP('',(#129));
#254=EDGE_LOOP('',(#130));
#255=EDGE_LOOP('',(#131));
#256=EDGE_LOOP('',(#132));
#257=EDGE_LOOP('',(#133));
#258=EDGE_LOOP('',(#134));
#259=EDGE_LOOP('',(#135));
#260=EDGE_LOOP('',(#136));
#261=EDGE_LOOP('',(#137));
#262=EDGE_LOOP('',(#138));
#263=FACE_BOUND('',#221,.T.);
#264=FACE_BOUND('',#222,.T.);
#265=FACE_BOUND('',#223,.T.);
#266=FACE_BOUND('',#224,.T.);
#267=FACE_BOUND('',#225,.T.);
#268=FACE_BOUND('',#226,.T.);
#269=FACE_BOUND('',#227,.T.);
#270=FACE_BOUND('',#228,.T.);
#271=FACE_BOUND('',#229,.T.);
#272=FACE_BOUND('',#230,.T.);
#273=FACE_BOUND('',#231,.T.);
#274=FACE_BOUND('',#232,.T.);
#275=FACE_BOUND('',#233,.T.);
#276=FACE_BOUND('',#234,.T.);
#277=FACE_BOUND('',#235,.T.);
#278=FACE_BOUND('',#236,.T.);
#279=FACE_BOUND('',#237,.T.);
#280=FACE_BOUND('',#238,.T.);
#281=FACE_BOUND('',#239,.T.);
#282=FACE_BOUND('',#240,.T.);
#283=FACE_BOUND('',#241,.T.);
#284=FACE_BOUND('',#242,.T.);
#285=FACE_BOUND('',#243,.T.);
#286=FACE_BOUND('',#244,.T.);
#287=FACE_BOUND('',#245,.T.);
#288=FACE_BOUND('',#246,.T.);
#289=FACE_BOUND('',#247,.T.);
#290=FACE_BOUND('',#248,.T.);
#291=FACE_BOUND('',#249,.T.);
#292=FACE_BOUND('',#250,.T.);
#293=FACE_BOUND('',#251,.T.);
#294=FACE_BOUND('',#252,.T.);
#295=FACE_BOUND('',#253,.T.);
#296=FACE_BOUND('',#254,.T.);
#297=FACE_BOUND('',#255,.T.);
#298=FACE_BOUND('',#256,.T.);
#299=FACE_BOUND('',#257,.T.);
#300=FACE_BOUND('',#258,.T.);
#301=FACE_BOUND('',#259,.T.);
#302=FACE_BOUND('',#260,.T.);
#303=FACE_BOUND('',#261,.T.);
#304=FACE_BOUND('',#20,.T.);
#305=FACE_BOUND('',#262,.T.);
#306=PLANE('',#357);
#307=PLANE('',#361);
#308=PLANE('',#369);
#309=PLANE('',#373);
#310=PLANE('',#377);
#311=PLANE('',#380);
#312=PLANE('',#381);
#313=PLANE('',#382);
#314=PLANE('',#383);
#315=PLANE('',#384);
#316=PLANE('',#385);
#317=PLANE('',#386);
#318=PLANE('',#388);
#319=ADVANCED_FACE('',(#263,#264),#306,.F.);
#320=ADVANCED_FACE('',(#265,#266),#27,.F.);
#321=ADVANCED_FACE('',(#267,#268),#307,.F.);
#322=ADVANCED_FACE('',(#269,#270),#24,.F.);
#323=ADVANCED_FACE('',(#271,#272),#25,.T.);
#324=ADVANCED_FACE('',(#273,#274),#26,.F.);
#325=ADVANCED_FACE('',(#275,#276),#308,.F.);
#326=ADVANCED_FACE('',(#277,#278),#28,.F.);
#327=ADVANCED_FACE('',(#279,#280),#309,.F.);
#328=ADVANCED_FACE('',(#281,#282),#29,.T.);
#329=ADVANCED_FACE('',(#283,#284),#310,.F.);
#330=ADVANCED_FACE('',(#285),#23,.T.);
#331=ADVANCED_FACE('',(#286),#311,.T.);
#332=ADVANCED_FACE('',(#287),#312,.T.);
#333=ADVANCED_FACE('',(#288),#313,.T.);
#334=ADVANCED_FACE('',(#289),#314,.T.);
#335=ADVANCED_FACE('',(#290),#315,.T.);
#336=ADVANCED_FACE('',(#291),#316,.T.);
#337=ADVANCED_FACE('',(#292,#293),#317,.F.);
#338=ADVANCED_FACE('',(#294,#295),#318,.F.);
#339=ADVANCED_FACE('',(#296,#297),#30,.T.);
#340=ADVANCED_FACE('',(#298,#299),#21,.T.);
#341=ADVANCED_FACE('',(#300,#301),#31,.F.);
#342=ADVANCED_FACE('',(#302,#303),#22,.F.);
#343=ADVANCED_FACE('',(#304,#305),#32,.F.);
#344=CLOSED_SHELL('',(#319,#320,#321,#322,#323,#324,#325,#326,#327,#328,
#329,#330,#331,#332,#333,#334,#335,#336,#337,#338,#339,#340,#341,#342,#343));
#345=STYLED_ITEM('',(#346),#353);
#346=PRESENTATION_STYLE_ASSIGNMENT((#347));
#347=SURFACE_STYLE_USAGE(.BOTH.,#348);
#348=SURFACE_SIDE_STYLE('',(#349));
#349=SURFACE_STYLE_FILL_AREA(#350);
#350=FILL_AREA_STYLE('',(#351));
#351=FILL_AREA_STYLE_COLOUR('',#352);
#352=COLOUR_RGB('',0.689999997615814,0.689999997615814,0.689999997615814);
#353=MANIFOLD_SOLID_BREP('CRPN63-2ZR',#344);
#354=SHAPE_DEFINITION_REPRESENTATION(#600,#355);
#355=SHAPE_REPRESENTATION('CRPN63-2ZR',(#356),#595);
#356=AXIS2_PLACEMENT_3D('',#503,#399,#400);
#357=AXIS2_PLACEMENT_3D('',#504,#401,#402);
#358=AXIS2_PLACEMENT_3D('',#505,#403,#404);
#359=AXIS2_PLACEMENT_3D('',#519,#411,#412);
#360=AXIS2_PLACEMENT_3D('',#520,#413,#414);
#361=AXIS2_PLACEMENT_3D('',#522,#415,#416);
#362=AXIS2_PLACEMENT_3D('',#523,#417,#418);
#363=AXIS2_PLACEMENT_3D('',#525,#419,#420);
#364=AXIS2_PLACEMENT_3D('',#526,#421,#422);
#365=AXIS2_PLACEMENT_3D('',#528,#423,#424);
#366=AXIS2_PLACEMENT_3D('',#529,#425,#426);
#367=AXIS2_PLACEMENT_3D('',#531,#427,#428);
#368=AXIS2_PLACEMENT_3D('',#532,#429,#430);
#369=AXIS2_PLACEMENT_3D('',#534,#431,#432);
#370=AXIS2_PLACEMENT_3D('',#535,#433,#434);
#371=AXIS2_PLACEMENT_3D('',#537,#435,#436);
#372=AXIS2_PLACEMENT_3D('',#538,#437,#438);
#373=AXIS2_PLACEMENT_3D('',#540,#439,#440);
#374=AXIS2_PLACEMENT_3D('',#541,#441,#442);
#375=AXIS2_PLACEMENT_3D('',#543,#443,#444);
#376=AXIS2_PLACEMENT_3D('',#544,#445,#446);
#377=AXIS2_PLACEMENT_3D('',#546,#447,#448);
#378=AXIS2_PLACEMENT_3D('',#547,#449,#450);
#379=AXIS2_PLACEMENT_3D('',#549,#451,#452);
#380=AXIS2_PLACEMENT_3D('',#550,#453,#454);
#381=AXIS2_PLACEMENT_3D('',#556,#458,#459);
#382=AXIS2_PLACEMENT_3D('',#560,#462,#463);
#383=AXIS2_PLACEMENT_3D('',#564,#466,#467);
#384=AXIS2_PLACEMENT_3D('',#568,#470,#471);
#385=AXIS2_PLACEMENT_3D('',#572,#474,#475);
#386=AXIS2_PLACEMENT_3D('',#574,#477,#478);
#387=AXIS2_PLACEMENT_3D('',#575,#479,#480);
#388=AXIS2_PLACEMENT_3D('',#577,#481,#482);
#389=AXIS2_PLACEMENT_3D('',#578,#483,#484);
#390=AXIS2_PLACEMENT_3D('',#580,#485,#486);
#391=AXIS2_PLACEMENT_3D('',#582,#487,#488);
#392=AXIS2_PLACEMENT_3D('',#583,#489,#490);
#393=AXIS2_PLACEMENT_3D('',#585,#491,#492);
#394=AXIS2_PLACEMENT_3D('',#586,#493,#494);
#395=AXIS2_PLACEMENT_3D('',#587,#495,#496);
#396=AXIS2_PLACEMENT_3D('',#589,#497,#498);
#397=AXIS2_PLACEMENT_3D('',#590,#499,#500);
#398=AXIS2_PLACEMENT_3D('',#592,#501,#502);
#399=DIRECTION('',(0.,0.,1.));
#400=DIRECTION('',(1.,0.,0.));
#401=DIRECTION('',(1.,7.65063305373719E-16,0.));
#402=DIRECTION('',(-7.65063305373719E-16,1.,0.));
#403=DIRECTION('',(1.,7.65063305373719E-16,0.));
#404=DIRECTION('',(-7.65063305373719E-16,1.,0.));
#405=DIRECTION('',(0.,0.,1.));
#406=DIRECTION('',(0.,-0.866025403784439,0.5));
#407=DIRECTION('',(0.,-0.866025403784438,-0.5));
#408=DIRECTION('',(0.,0.,-1.));
#409=DIRECTION('',(0.,0.866025403784439,-0.5));
#410=DIRECTION('',(0.,0.866025403784438,0.5));
#411=DIRECTION('',(-1.,-7.65063305373719E-16,0.));
#412=DIRECTION('',(7.65063305373719E-16,-1.,0.));
#413=DIRECTION('',(1.,7.65063305373719E-16,0.));
#414=DIRECTION('',(-7.65063305373719E-16,1.,0.));
#415=DIRECTION('',(1.,7.65063305373719E-16,0.));
#416=DIRECTION('',(-7.65063305373719E-16,1.,0.));
#417=DIRECTION('',(1.,7.65063305373719E-16,0.));
#418=DIRECTION('',(-7.65063305373719E-16,1.,0.));
#419=DIRECTION('',(1.,7.65063305373719E-16,0.));
#420=DIRECTION('',(-7.65063305373719E-16,1.,0.));
#421=DIRECTION('',(1.,7.65063305373719E-16,0.));
#422=DIRECTION('',(-7.65063305373719E-16,1.,0.));
#423=DIRECTION('',(1.,7.65063305373719E-16,0.));
#424=DIRECTION('',(-7.65063305373719E-16,1.,0.));
#425=DIRECTION('',(1.,7.65063305373719E-16,0.));
#426=DIRECTION('',(-7.65063305373719E-16,1.,0.));
#427=DIRECTION('',(1.,7.65063305373719E-16,0.));
#428=DIRECTION('',(-7.65063305373719E-16,1.,0.));
#429=DIRECTION('',(1.,7.65063305373719E-16,0.));
#430=DIRECTION('',(-7.65063305373719E-16,1.,0.));
#431=DIRECTION('',(-1.,-7.65063305373719E-16,0.));
#432=DIRECTION('',(7.65063305373719E-16,-1.,0.));
#433=DIRECTION('',(1.,7.65063305373719E-16,0.));
#434=DIRECTION('',(-7.65063305373719E-16,1.,0.));
#435=DIRECTION('',(1.,7.65063305373719E-16,0.));
#436=DIRECTION('',(-7.65063305373719E-16,1.,0.));
#437=DIRECTION('',(1.,7.65063305373719E-16,0.));
#438=DIRECTION('',(-7.65063305373719E-16,1.,0.));
#439=DIRECTION('',(-1.,-7.65063305373719E-16,0.));
#440=DIRECTION('',(7.65063305373719E-16,-1.,0.));
#441=DIRECTION('',(1.,7.65063305373719E-16,0.));
#442=DIRECTION('',(-7.65063305373719E-16,1.,0.));
#443=DIRECTION('',(-1.,-7.65063305373719E-16,0.));
#444=DIRECTION('',(7.65063305373719E-16,-1.,0.));
#445=DIRECTION('',(1.,7.65063305373719E-16,0.));
#446=DIRECTION('',(-7.65063305373719E-16,1.,0.));
#447=DIRECTION('',(-1.,-7.65063305373719E-16,0.));
#448=DIRECTION('',(7.65063305373719E-16,-1.,0.));
#449=DIRECTION('',(1.,7.65063305373719E-16,0.));
#450=DIRECTION('',(-7.65063305373719E-16,1.,0.));
#451=DIRECTION('',(1.,7.65063305373719E-16,0.));
#452=DIRECTION('',(-7.65063305373719E-16,1.,0.));
#453=DIRECTION('',(0.,0.5,0.866025403784439));
#454=DIRECTION('',(0.,-0.866025403784439,0.5));
#455=DIRECTION('',(1.,0.,0.));
#456=DIRECTION('',(0.,-0.866025403784439,0.5));
#457=DIRECTION('',(1.,0.,0.));
#458=DIRECTION('',(0.,-0.5,0.866025403784439));
#459=DIRECTION('',(0.,-0.866025403784439,-0.5));
#460=DIRECTION('',(0.,-0.866025403784438,-0.5));
#461=DIRECTION('',(1.,0.,0.));
#462=DIRECTION('',(0.,-1.,0.));
#463=DIRECTION('',(0.,0.,-1.));
#464=DIRECTION('',(0.,0.,-1.));
#465=DIRECTION('',(1.,0.,0.));
#466=DIRECTION('',(0.,-0.5,-0.866025403784439));
#467=DIRECTION('',(0.,0.866025403784439,-0.5));
#468=DIRECTION('',(0.,0.866025403784439,-0.5));
#469=DIRECTION('',(1.,0.,0.));
#470=DIRECTION('',(0.,0.5,-0.866025403784439));
#471=DIRECTION('',(0.,0.866025403784439,0.5));
#472=DIRECTION('',(0.,0.866025403784438,0.5));
#473=DIRECTION('',(1.,0.,0.));
#474=DIRECTION('',(0.,1.,0.));
#475=DIRECTION('',(0.,0.,1.));
#476=DIRECTION('',(0.,0.,1.));
#477=DIRECTION('',(1.,0.,0.));
#478=DIRECTION('',(0.,0.,-1.));
#479=DIRECTION('',(1.,0.,0.));
#480=DIRECTION('',(0.,0.,-1.));
#481=DIRECTION('',(1.,0.,0.));
#482=DIRECTION('',(0.,0.,-1.));
#483=DIRECTION('',(1.,0.,0.));
#484=DIRECTION('',(0.,0.,-1.));
#485=DIRECTION('',(1.,0.,0.));
#486=DIRECTION('',(0.,0.,-1.));
#487=DIRECTION('',(1.,0.,0.));
#488=DIRECTION('',(0.,0.,-1.));
#489=DIRECTION('',(1.,0.,0.));
#490=DIRECTION('',(0.,0.,-1.));
#491=DIRECTION('',(1.,0.,0.));
#492=DIRECTION('',(0.,0.,-1.));
#493=DIRECTION('',(-1.,0.,0.));
#494=DIRECTION('',(0.,0.,1.));
#495=DIRECTION('',(1.,0.,0.));
#496=DIRECTION('',(0.,0.,-1.));
#497=DIRECTION('',(1.,0.,0.));
#498=DIRECTION('',(0.,0.,-1.));
#499=DIRECTION('',(1.,0.,0.));
#500=DIRECTION('',(0.,0.,-1.));
#501=DIRECTION('',(-1.,0.,0.));
#502=DIRECTION('',(0.,0.,1.));
#503=CARTESIAN_POINT('',(0.,0.,0.));
#504=CARTESIAN_POINT('',(8.79999999999998,-1.75867098790339E-29,0.));
#505=CARTESIAN_POINT('',(8.79999999999995,-3.54371109767251E-29,0.));
#506=CARTESIAN_POINT('',(8.79999999999994,17.,0.));
#507=CARTESIAN_POINT('',(8.8,12.5,-7.21687836487032));
#508=CARTESIAN_POINT('',(8.8,12.5,-7.21687836487032));
#509=CARTESIAN_POINT('',(8.79999999999997,12.5,7.21687836487032));
#510=CARTESIAN_POINT('',(8.8,12.5,7.21687836487032));
#511=CARTESIAN_POINT('',(8.8,-1.77635683940025E-15,14.4337567297406));
#512=CARTESIAN_POINT('',(8.8,-1.77635683940025E-15,14.4337567297406));
#513=CARTESIAN_POINT('',(8.8,-12.5,7.21687836487032));
#514=CARTESIAN_POINT('',(8.8,-12.5,7.21687836487032));
#515=CARTESIAN_POINT('',(8.8,-12.5,-7.21687836487032));
#516=CARTESIAN_POINT('',(8.8,-12.5,-7.21687836487032));
#517=CARTESIAN_POINT('',(8.8,3.46944695195361E-15,-14.4337567297406));
#518=CARTESIAN_POINT('',(8.8,1.77635683940025E-15,-14.4337567297406));
#519=CARTESIAN_POINT('',(8.79999999999995,-3.54371109767251E-29,0.));
#520=CARTESIAN_POINT('',(8.29999999999996,-3.82531652686891E-16,0.));
#521=CARTESIAN_POINT('',(8.29999999999994,19.85,0.));
#522=CARTESIAN_POINT('',(8.29999999999996,19.85,0.));
#523=CARTESIAN_POINT('',(8.29999999999998,-3.82531652686871E-16,0.));
#524=CARTESIAN_POINT('',(8.29999999999997,20.0664568416279,0.));
#525=CARTESIAN_POINT('',(8.50029047249878,0.,0.));
#526=CARTESIAN_POINT('',(10.5,1.30060761913534E-15,0.));
#527=CARTESIAN_POINT('',(10.5,22.0223172309919,0.));
#528=CARTESIAN_POINT('',(17.05,6.93889390390723E-15,0.));
#529=CARTESIAN_POINT('',(23.6,1.13229369195311E-14,0.));
#530=CARTESIAN_POINT('',(23.6,22.0223172309919,0.));
#531=CARTESIAN_POINT('',(25.5997095275013,1.38777878078145E-14,0.));
#532=CARTESIAN_POINT('',(25.8,1.30060761913532E-14,0.));
#533=CARTESIAN_POINT('',(25.8,20.0664568416279,0.));
#534=CARTESIAN_POINT('',(25.8,20.0664568416279,0.));
#535=CARTESIAN_POINT('',(25.8,1.30060761913532E-14,0.));
#536=CARTESIAN_POINT('',(25.8,19.85,0.));
#537=CARTESIAN_POINT('',(25.8,1.30060761913532E-14,0.));
#538=CARTESIAN_POINT('',(25.2999999999999,1.26235445386663E-14,0.));
#539=CARTESIAN_POINT('',(25.2999999999999,17.,0.));
#540=CARTESIAN_POINT('',(25.2999999999999,17.,0.));
#541=CARTESIAN_POINT('',(25.2999999999999,1.26235445386663E-14,0.));
#542=CARTESIAN_POINT('',(25.2999999999999,12.,0.));
#543=CARTESIAN_POINT('',(25.2999999999999,1.26235445386663E-14,0.));
#544=CARTESIAN_POINT('',(25.8,1.30060761913532E-14,0.));
#545=CARTESIAN_POINT('',(25.8,9.78856208386247,0.));
#546=CARTESIAN_POINT('',(25.8,9.78856208386247,0.));
#547=CARTESIAN_POINT('',(25.8,1.30060761913532E-14,0.));
#548=CARTESIAN_POINT('',(25.8,6.98856208386247,0.));
#549=CARTESIAN_POINT('',(-14.6000000000023,-2.0643209364124E-13,0.));
#550=CARTESIAN_POINT('',(6.,12.5,7.21687836487032));
#551=CARTESIAN_POINT('',(6.,12.5,7.21687836487032));
#552=CARTESIAN_POINT('',(6.,12.5,7.21687836487032));
#553=CARTESIAN_POINT('',(6.,12.5,7.21687836487032));
#554=CARTESIAN_POINT('',(6.,-1.77635683940025E-15,14.4337567297406));
#555=CARTESIAN_POINT('',(6.,-1.77635683940025E-15,14.4337567297406));
#556=CARTESIAN_POINT('',(6.,-1.77635683940025E-15,14.4337567297406));
#557=CARTESIAN_POINT('',(6.,-1.77635683940025E-15,14.4337567297406));
#558=CARTESIAN_POINT('',(6.,-12.5,7.21687836487032));
#559=CARTESIAN_POINT('',(6.,-12.5,7.21687836487032));
#560=CARTESIAN_POINT('',(6.,-12.5,7.21687836487032));
#561=CARTESIAN_POINT('',(6.,-12.5,7.21687836487032));
#562=CARTESIAN_POINT('',(6.,-12.5,-7.21687836487032));
#563=CARTESIAN_POINT('',(6.,-12.5,-7.21687836487032));
#564=CARTESIAN_POINT('',(6.,-12.5,-7.21687836487032));
#565=CARTESIAN_POINT('',(6.,-12.5,-7.21687836487032));
#566=CARTESIAN_POINT('',(6.,3.46944695195361E-15,-14.4337567297406));
#567=CARTESIAN_POINT('',(6.,3.46944695195361E-15,-14.4337567297406));
#568=CARTESIAN_POINT('',(6.,1.77635683940025E-15,-14.4337567297406));
#569=CARTESIAN_POINT('',(6.,1.77635683940025E-15,-14.4337567297406));
#570=CARTESIAN_POINT('',(6.,12.5,-7.21687836487032));
#571=CARTESIAN_POINT('',(6.,12.5,-7.21687836487032));
#572=CARTESIAN_POINT('',(6.,12.5,-7.21687836487032));
#573=CARTESIAN_POINT('',(6.,12.5,-7.21687836487032));
#574=CARTESIAN_POINT('',(6.,0.,0.));
#575=CARTESIAN_POINT('',(6.,0.,0.));
#576=CARTESIAN_POINT('',(6.,0.,-9.));
#577=CARTESIAN_POINT('',(0.,0.,0.));
#578=CARTESIAN_POINT('',(0.,0.,0.));
#579=CARTESIAN_POINT('',(0.,0.,-8.));
#580=CARTESIAN_POINT('',(0.,0.,0.));
#581=CARTESIAN_POINT('',(0.,0.,-4.));
#582=CARTESIAN_POINT('',(0.,0.,0.));
#583=CARTESIAN_POINT('',(1.,0.,0.));
#584=CARTESIAN_POINT('',(1.,0.,-9.));
#585=CARTESIAN_POINT('',(8.8,0.,0.));
#586=CARTESIAN_POINT('',(0.,0.,0.));
#587=CARTESIAN_POINT('',(0.6765,0.,0.));
#588=CARTESIAN_POINT('',(0.6765,0.,-3.3235));
#589=CARTESIAN_POINT('',(22.9969602673381,0.,0.));
#590=CARTESIAN_POINT('',(21.,0.,0.));
#591=CARTESIAN_POINT('',(21.,0.,-3.3235));
#592=CARTESIAN_POINT('',(21.,0.,0.));
#593=CARTESIAN_POINT('',(22.9969602673381,0.,0.));
#594=MECHANICAL_DESIGN_GEOMETRIC_PRESENTATION_REPRESENTATION('',(#345),
#595);
#595=(
GEOMETRIC_REPRESENTATION_CONTEXT(3)
GLOBAL_UNCERTAINTY_ASSIGNED_CONTEXT((#596))
GLOBAL_UNIT_ASSIGNED_CONTEXT((#599,#598,#597))
REPRESENTATION_CONTEXT('CRPN63-2ZR','TOP_LEVEL_ASSEMBLY_PART')
);
#596=UNCERTAINTY_MEASURE_WITH_UNIT(LENGTH_MEASURE(0.005),#599,
'DISTANCE_ACCURACY_VALUE','Maximum Tolerance applied to model');
#597=(
NAMED_UNIT(*)
SI_UNIT($,.STERADIAN.)
SOLID_ANGLE_UNIT()
);
#598=(
NAMED_UNIT(*)
PLANE_ANGLE_UNIT()
SI_UNIT($,.RADIAN.)
);
#599=(
LENGTH_UNIT()
NAMED_UNIT(*)
SI_UNIT(.MILLI.,.METRE.)
);
#600=PRODUCT_DEFINITION_SHAPE('','',#601);
#601=PRODUCT_DEFINITION('','',#603,#602);
#602=PRODUCT_DEFINITION_CONTEXT('',#609,'design');
#603=PRODUCT_DEFINITION_FORMATION_WITH_SPECIFIED_SOURCE('','',#605,
 .NOT_KNOWN.);
#604=PRODUCT_RELATED_PRODUCT_CATEGORY('','',(#605));
#605=PRODUCT('CRPN63-2ZR','CRPN63-2ZR','CRPN63-2ZR',(#607));
#606=PRODUCT_CATEGORY('','');
#607=PRODUCT_CONTEXT('',#609,'mechanical');
#608=APPLICATION_PROTOCOL_DEFINITION('international standard',
'automotive_design',2010,#609);
#609=APPLICATION_CONTEXT(
'core data for automotive mechanical design processes');
ENDSEC;
END-ISO-10303-21;
