ISO-10303-21;
HEADER;
/* Generated by software containing ST-Developer
 * from STEP Tools, Inc. (www.steptools.com) 
 */
/* OPTION: using custom renumber hook */

FILE_DESCRIPTION(
/* description */ ('STEP AP214'),
/* implementation_level */ '2;1');

FILE_NAME(
/* name */ 'CRPN43-2Z',
/* time_stamp */ '2024-08-06T11:34:01+02:00',
/* author */ ('License CC BY-ND 4.0'),
/* organization */ ('CADENAS'),
/* preprocessor_version */ 'ST-DEVELOPER v19.3',
/* originating_system */ 'PARTsolutions',
/* authorisation */ '  ');

FILE_SCHEMA (('AUTOMOTIVE_DESIGN {1 0 10303 214 3 1 1}'));
ENDSEC;

DATA;
#10=PROPERTY_DEFINITION_REPRESENTATION(#14,#12);
#11=PROPERTY_DEFINITION_REPRESENTATION(#15,#13);
#12=REPRESENTATION('',(#16),#555);
#13=REPRESENTATION('',(#17),#555);
#14=PROPERTY_DEFINITION('pmi validation property','',#560);
#15=PROPERTY_DEFINITION('pmi validation property','',#560);
#16=VALUE_REPRESENTATION_ITEM('number of annotations',COUNT_MEASURE(0.));
#17=VALUE_REPRESENTATION_ITEM('number of views',COUNT_MEASURE(0.));
#18=SHAPE_REPRESENTATION_RELATIONSHIP('','',#333,#19);
#19=ADVANCED_BREP_SHAPE_REPRESENTATION('',(#331),#555);
#20=VERTEX_LOOP('',#194);
#21=LINE('',#498,#39);
#22=LINE('',#501,#40);
#23=LINE('',#503,#41);
#24=LINE('',#505,#42);
#25=LINE('',#507,#43);
#26=LINE('',#509,#44);
#27=LINE('',#511,#45);
#28=LINE('',#513,#46);
#29=LINE('',#515,#47);
#30=LINE('',#517,#48);
#31=LINE('',#519,#49);
#32=LINE('',#521,#50);
#33=LINE('',#523,#51);
#34=LINE('',#525,#52);
#35=LINE('',#527,#53);
#36=LINE('',#529,#54);
#37=LINE('',#531,#55);
#38=LINE('',#532,#56);
#39=VECTOR('',#413,1000.);
#40=VECTOR('',#414,1000.);
#41=VECTOR('',#415,1000.);
#42=VECTOR('',#416,1000.);
#43=VECTOR('',#419,1000.);
#44=VECTOR('',#420,1000.);
#45=VECTOR('',#421,1000.);
#46=VECTOR('',#424,1000.);
#47=VECTOR('',#425,1000.);
#48=VECTOR('',#426,1000.);
#49=VECTOR('',#429,1000.);
#50=VECTOR('',#430,1000.);
#51=VECTOR('',#431,1000.);
#52=VECTOR('',#434,1000.);
#53=VECTOR('',#435,1000.);
#54=VECTOR('',#436,1000.);
#55=VECTOR('',#439,1000.);
#56=VECTOR('',#440,1000.);
#57=CYLINDRICAL_SURFACE('',#351,6.);
#58=CYLINDRICAL_SURFACE('',#367,6.);
#59=CYLINDRICAL_SURFACE('',#370,2.4585);
#60=SPHERICAL_SURFACE('',#350,18.8200000000005);
#61=TOROIDAL_SURFACE('',#340,10.800000000002,7.);
#62=CONICAL_SURFACE('',#338,13.,1.45661994791);
#63=CONICAL_SURFACE('',#342,15.136470338883,1.45661994791074);
#64=CONICAL_SURFACE('',#346,7.99999999999952,0.673998209173172);
#65=CONICAL_SURFACE('',#365,5.3,0.785398163397448);
#66=CONICAL_SURFACE('',#368,3.,0.785398163397448);
#67=CONICAL_SURFACE('',#372,2.4585,1.02974425867665);
#68=ORIENTED_EDGE('',*,*,#134,.F.);
#69=ORIENTED_EDGE('',*,*,#135,.F.);
#70=ORIENTED_EDGE('',*,*,#136,.F.);
#71=ORIENTED_EDGE('',*,*,#134,.T.);
#72=ORIENTED_EDGE('',*,*,#136,.T.);
#73=ORIENTED_EDGE('',*,*,#137,.F.);
#74=ORIENTED_EDGE('',*,*,#138,.F.);
#75=ORIENTED_EDGE('',*,*,#137,.T.);
#76=ORIENTED_EDGE('',*,*,#139,.F.);
#77=ORIENTED_EDGE('',*,*,#138,.T.);
#78=ORIENTED_EDGE('',*,*,#140,.F.);
#79=ORIENTED_EDGE('',*,*,#139,.T.);
#80=ORIENTED_EDGE('',*,*,#141,.F.);
#81=ORIENTED_EDGE('',*,*,#140,.T.);
#82=ORIENTED_EDGE('',*,*,#141,.T.);
#83=ORIENTED_EDGE('',*,*,#135,.T.);
#84=ORIENTED_EDGE('',*,*,#142,.T.);
#85=ORIENTED_EDGE('',*,*,#143,.F.);
#86=ORIENTED_EDGE('',*,*,#144,.F.);
#87=ORIENTED_EDGE('',*,*,#145,.T.);
#88=ORIENTED_EDGE('',*,*,#146,.T.);
#89=ORIENTED_EDGE('',*,*,#147,.F.);
#90=ORIENTED_EDGE('',*,*,#146,.F.);
#91=ORIENTED_EDGE('',*,*,#148,.T.);
#92=ORIENTED_EDGE('',*,*,#149,.T.);
#93=ORIENTED_EDGE('',*,*,#150,.F.);
#94=ORIENTED_EDGE('',*,*,#149,.F.);
#95=ORIENTED_EDGE('',*,*,#151,.T.);
#96=ORIENTED_EDGE('',*,*,#152,.T.);
#97=ORIENTED_EDGE('',*,*,#153,.F.);
#98=ORIENTED_EDGE('',*,*,#152,.F.);
#99=ORIENTED_EDGE('',*,*,#154,.T.);
#100=ORIENTED_EDGE('',*,*,#155,.T.);
#101=ORIENTED_EDGE('',*,*,#156,.F.);
#102=ORIENTED_EDGE('',*,*,#155,.F.);
#103=ORIENTED_EDGE('',*,*,#157,.T.);
#104=ORIENTED_EDGE('',*,*,#158,.T.);
#105=ORIENTED_EDGE('',*,*,#159,.F.);
#106=ORIENTED_EDGE('',*,*,#158,.F.);
#107=ORIENTED_EDGE('',*,*,#160,.T.);
#108=ORIENTED_EDGE('',*,*,#144,.T.);
#109=ORIENTED_EDGE('',*,*,#161,.T.);
#110=ORIENTED_EDGE('',*,*,#145,.F.);
#111=ORIENTED_EDGE('',*,*,#160,.F.);
#112=ORIENTED_EDGE('',*,*,#157,.F.);
#113=ORIENTED_EDGE('',*,*,#154,.F.);
#114=ORIENTED_EDGE('',*,*,#151,.F.);
#115=ORIENTED_EDGE('',*,*,#148,.F.);
#116=ORIENTED_EDGE('',*,*,#142,.F.);
#117=ORIENTED_EDGE('',*,*,#143,.T.);
#118=ORIENTED_EDGE('',*,*,#147,.T.);
#119=ORIENTED_EDGE('',*,*,#150,.T.);
#120=ORIENTED_EDGE('',*,*,#153,.T.);
#121=ORIENTED_EDGE('',*,*,#156,.T.);
#122=ORIENTED_EDGE('',*,*,#159,.T.);
#123=ORIENTED_EDGE('',*,*,#162,.F.);
#124=ORIENTED_EDGE('',*,*,#163,.T.);
#125=ORIENTED_EDGE('',*,*,#164,.F.);
#126=ORIENTED_EDGE('',*,*,#162,.T.);
#127=ORIENTED_EDGE('',*,*,#161,.F.);
#128=ORIENTED_EDGE('',*,*,#164,.T.);
#129=ORIENTED_EDGE('',*,*,#165,.T.);
#130=ORIENTED_EDGE('',*,*,#163,.F.);
#131=ORIENTED_EDGE('',*,*,#166,.T.);
#132=ORIENTED_EDGE('',*,*,#165,.F.);
#133=ORIENTED_EDGE('',*,*,#166,.F.);
#134=EDGE_CURVE('',#167,#167,#195,.T.);
#135=EDGE_CURVE('',#168,#168,#196,.F.);
#136=EDGE_CURVE('',#169,#169,#197,.T.);
#137=EDGE_CURVE('',#170,#170,#198,.T.);
#138=EDGE_CURVE('',#171,#171,#199,.T.);
#139=EDGE_CURVE('',#172,#172,#200,.T.);
#140=EDGE_CURVE('',#173,#173,#201,.T.);
#141=EDGE_CURVE('',#174,#174,#202,.T.);
#142=EDGE_CURVE('',#175,#175,#203,.T.);
#143=EDGE_CURVE('',#176,#177,#21,.T.);
#144=EDGE_CURVE('',#178,#176,#22,.T.);
#145=EDGE_CURVE('',#178,#179,#23,.T.);
#146=EDGE_CURVE('',#179,#177,#24,.T.);
#147=EDGE_CURVE('',#177,#180,#25,.T.);
#148=EDGE_CURVE('',#179,#181,#26,.T.);
#149=EDGE_CURVE('',#181,#180,#27,.T.);
#150=EDGE_CURVE('',#180,#182,#28,.T.);
#151=EDGE_CURVE('',#181,#183,#29,.T.);
#152=EDGE_CURVE('',#183,#182,#30,.T.);
#153=EDGE_CURVE('',#182,#184,#31,.T.);
#154=EDGE_CURVE('',#183,#185,#32,.T.);
#155=EDGE_CURVE('',#185,#184,#33,.T.);
#156=EDGE_CURVE('',#184,#186,#34,.T.);
#157=EDGE_CURVE('',#185,#187,#35,.T.);
#158=EDGE_CURVE('',#187,#186,#36,.T.);
#159=EDGE_CURVE('',#186,#176,#37,.T.);
#160=EDGE_CURVE('',#187,#178,#38,.T.);
#161=EDGE_CURVE('',#188,#188,#204,.T.);
#162=EDGE_CURVE('',#189,#189,#205,.T.);
#163=EDGE_CURVE('',#190,#190,#206,.T.);
#164=EDGE_CURVE('',#191,#191,#207,.T.);
#165=EDGE_CURVE('',#192,#192,#208,.T.);
#166=EDGE_CURVE('',#193,#193,#209,.T.);
#167=VERTEX_POINT('',#472);
#168=VERTEX_POINT('',#474);
#169=VERTEX_POINT('',#477);
#170=VERTEX_POINT('',#480);
#171=VERTEX_POINT('',#483);
#172=VERTEX_POINT('',#486);
#173=VERTEX_POINT('',#489);
#174=VERTEX_POINT('',#492);
#175=VERTEX_POINT('',#496);
#176=VERTEX_POINT('',#499);
#177=VERTEX_POINT('',#500);
#178=VERTEX_POINT('',#502);
#179=VERTEX_POINT('',#504);
#180=VERTEX_POINT('',#508);
#181=VERTEX_POINT('',#510);
#182=VERTEX_POINT('',#514);
#183=VERTEX_POINT('',#516);
#184=VERTEX_POINT('',#520);
#185=VERTEX_POINT('',#522);
#186=VERTEX_POINT('',#526);
#187=VERTEX_POINT('',#528);
#188=VERTEX_POINT('',#535);
#189=VERTEX_POINT('',#539);
#190=VERTEX_POINT('',#541);
#191=VERTEX_POINT('',#544);
#192=VERTEX_POINT('',#548);
#193=VERTEX_POINT('',#551);
#194=VERTEX_POINT('',#553);
#195=CIRCLE('',#336,13.);
#196=CIRCLE('',#337,6.);
#197=CIRCLE('',#339,15.1237686108327);
#198=CIRCLE('',#341,15.136470338883);
#199=CIRCLE('',#343,13.0000000000039);
#200=CIRCLE('',#345,7.99999999999952);
#201=CIRCLE('',#347,7.80030433977151);
#202=CIRCLE('',#349,5.75030433973575);
#203=CIRCLE('',#352,6.);
#204=CIRCLE('',#360,6.);
#205=CIRCLE('',#363,5.3);
#206=CIRCLE('',#364,3.);
#207=CIRCLE('',#366,6.);
#208=CIRCLE('',#369,2.4585);
#209=CIRCLE('',#371,2.4585);
#210=EDGE_LOOP('',(#68));
#211=EDGE_LOOP('',(#69));
#212=EDGE_LOOP('',(#70));
#213=EDGE_LOOP('',(#71));
#214=EDGE_LOOP('',(#72));
#215=EDGE_LOOP('',(#73));
#216=EDGE_LOOP('',(#74));
#217=EDGE_LOOP('',(#75));
#218=EDGE_LOOP('',(#76));
#219=EDGE_LOOP('',(#77));
#220=EDGE_LOOP('',(#78));
#221=EDGE_LOOP('',(#79));
#222=EDGE_LOOP('',(#80));
#223=EDGE_LOOP('',(#81));
#224=EDGE_LOOP('',(#82));
#225=EDGE_LOOP('',(#83));
#226=EDGE_LOOP('',(#84));
#227=EDGE_LOOP('',(#85,#86,#87,#88));
#228=EDGE_LOOP('',(#89,#90,#91,#92));
#229=EDGE_LOOP('',(#93,#94,#95,#96));
#230=EDGE_LOOP('',(#97,#98,#99,#100));
#231=EDGE_LOOP('',(#101,#102,#103,#104));
#232=EDGE_LOOP('',(#105,#106,#107,#108));
#233=EDGE_LOOP('',(#109));
#234=EDGE_LOOP('',(#110,#111,#112,#113,#114,#115));
#235=EDGE_LOOP('',(#116));
#236=EDGE_LOOP('',(#117,#118,#119,#120,#121,#122));
#237=EDGE_LOOP('',(#123));
#238=EDGE_LOOP('',(#124));
#239=EDGE_LOOP('',(#125));
#240=EDGE_LOOP('',(#126));
#241=EDGE_LOOP('',(#127));
#242=EDGE_LOOP('',(#128));
#243=EDGE_LOOP('',(#129));
#244=EDGE_LOOP('',(#130));
#245=EDGE_LOOP('',(#131));
#246=EDGE_LOOP('',(#132));
#247=EDGE_LOOP('',(#133));
#248=FACE_BOUND('',#210,.T.);
#249=FACE_BOUND('',#211,.T.);
#250=FACE_BOUND('',#212,.T.);
#251=FACE_BOUND('',#213,.T.);
#252=FACE_BOUND('',#214,.T.);
#253=FACE_BOUND('',#215,.T.);
#254=FACE_BOUND('',#216,.T.);
#255=FACE_BOUND('',#217,.T.);
#256=FACE_BOUND('',#218,.T.);
#257=FACE_BOUND('',#219,.T.);
#258=FACE_BOUND('',#220,.T.);
#259=FACE_BOUND('',#221,.T.);
#260=FACE_BOUND('',#222,.T.);
#261=FACE_BOUND('',#223,.T.);
#262=FACE_BOUND('',#224,.T.);
#263=FACE_BOUND('',#225,.T.);
#264=FACE_BOUND('',#226,.T.);
#265=FACE_BOUND('',#227,.T.);
#266=FACE_BOUND('',#228,.T.);
#267=FACE_BOUND('',#229,.T.);
#268=FACE_BOUND('',#230,.T.);
#269=FACE_BOUND('',#231,.T.);
#270=FACE_BOUND('',#232,.T.);
#271=FACE_BOUND('',#233,.T.);
#272=FACE_BOUND('',#234,.T.);
#273=FACE_BOUND('',#235,.T.);
#274=FACE_BOUND('',#236,.T.);
#275=FACE_BOUND('',#237,.T.);
#276=FACE_BOUND('',#238,.T.);
#277=FACE_BOUND('',#239,.T.);
#278=FACE_BOUND('',#240,.T.);
#279=FACE_BOUND('',#241,.T.);
#280=FACE_BOUND('',#242,.T.);
#281=FACE_BOUND('',#243,.T.);
#282=FACE_BOUND('',#244,.T.);
#283=FACE_BOUND('',#245,.T.);
#284=FACE_BOUND('',#246,.T.);
#285=FACE_BOUND('',#20,.T.);
#286=FACE_BOUND('',#247,.T.);
#287=PLANE('',#335);
#288=PLANE('',#344);
#289=PLANE('',#348);
#290=PLANE('',#353);
#291=PLANE('',#354);
#292=PLANE('',#355);
#293=PLANE('',#356);
#294=PLANE('',#357);
#295=PLANE('',#358);
#296=PLANE('',#359);
#297=PLANE('',#361);
#298=PLANE('',#362);
#299=ADVANCED_FACE('',(#248,#249),#287,.F.);
#300=ADVANCED_FACE('',(#250,#251),#62,.F.);
#301=ADVANCED_FACE('',(#252,#253),#61,.T.);
#302=ADVANCED_FACE('',(#254,#255),#63,.F.);
#303=ADVANCED_FACE('',(#256,#257),#288,.F.);
#304=ADVANCED_FACE('',(#258,#259),#64,.T.);
#305=ADVANCED_FACE('',(#260,#261),#289,.F.);
#306=ADVANCED_FACE('',(#262),#60,.T.);
#307=ADVANCED_FACE('',(#263,#264),#57,.T.);
#308=ADVANCED_FACE('',(#265),#290,.T.);
#309=ADVANCED_FACE('',(#266),#291,.T.);
#310=ADVANCED_FACE('',(#267),#292,.T.);
#311=ADVANCED_FACE('',(#268),#293,.T.);
#312=ADVANCED_FACE('',(#269),#294,.T.);
#313=ADVANCED_FACE('',(#270),#295,.T.);
#314=ADVANCED_FACE('',(#271,#272),#296,.F.);
#315=ADVANCED_FACE('',(#273,#274),#297,.T.);
#316=ADVANCED_FACE('',(#275,#276),#298,.F.);
#317=ADVANCED_FACE('',(#277,#278),#65,.T.);
#318=ADVANCED_FACE('',(#279,#280),#58,.T.);
#319=ADVANCED_FACE('',(#281,#282),#66,.F.);
#320=ADVANCED_FACE('',(#283,#284),#59,.F.);
#321=ADVANCED_FACE('',(#285,#286),#67,.F.);
#322=CLOSED_SHELL('',(#299,#300,#301,#302,#303,#304,#305,#306,#307,#308,
#309,#310,#311,#312,#313,#314,#315,#316,#317,#318,#319,#320,#321));
#323=STYLED_ITEM('',(#324),#331);
#324=PRESENTATION_STYLE_ASSIGNMENT((#325));
#325=SURFACE_STYLE_USAGE(.BOTH.,#326);
#326=SURFACE_SIDE_STYLE('',(#327));
#327=SURFACE_STYLE_FILL_AREA(#328);
#328=FILL_AREA_STYLE('',(#329));
#329=FILL_AREA_STYLE_COLOUR('',#330);
#330=COLOUR_RGB('',0.689999997615814,0.689999997615814,0.689999997615814);
#331=MANIFOLD_SOLID_BREP('CRPN43-2Z',#322);
#332=SHAPE_DEFINITION_REPRESENTATION(#560,#333);
#333=SHAPE_REPRESENTATION('CRPN43-2Z',(#334),#555);
#334=AXIS2_PLACEMENT_3D('',#469,#373,#374);
#335=AXIS2_PLACEMENT_3D('',#470,#375,#376);
#336=AXIS2_PLACEMENT_3D('',#471,#377,#378);
#337=AXIS2_PLACEMENT_3D('',#473,#379,#380);
#338=AXIS2_PLACEMENT_3D('',#475,#381,#382);
#339=AXIS2_PLACEMENT_3D('',#476,#383,#384);
#340=AXIS2_PLACEMENT_3D('',#478,#385,#386);
#341=AXIS2_PLACEMENT_3D('',#479,#387,#388);
#342=AXIS2_PLACEMENT_3D('',#481,#389,#390);
#343=AXIS2_PLACEMENT_3D('',#482,#391,#392);
#344=AXIS2_PLACEMENT_3D('',#484,#393,#394);
#345=AXIS2_PLACEMENT_3D('',#485,#395,#396);
#346=AXIS2_PLACEMENT_3D('',#487,#397,#398);
#347=AXIS2_PLACEMENT_3D('',#488,#399,#400);
#348=AXIS2_PLACEMENT_3D('',#490,#401,#402);
#349=AXIS2_PLACEMENT_3D('',#491,#403,#404);
#350=AXIS2_PLACEMENT_3D('',#493,#405,#406);
#351=AXIS2_PLACEMENT_3D('',#494,#407,#408);
#352=AXIS2_PLACEMENT_3D('',#495,#409,#410);
#353=AXIS2_PLACEMENT_3D('',#497,#411,#412);
#354=AXIS2_PLACEMENT_3D('',#506,#417,#418);
#355=AXIS2_PLACEMENT_3D('',#512,#422,#423);
#356=AXIS2_PLACEMENT_3D('',#518,#427,#428);
#357=AXIS2_PLACEMENT_3D('',#524,#432,#433);
#358=AXIS2_PLACEMENT_3D('',#530,#437,#438);
#359=AXIS2_PLACEMENT_3D('',#533,#441,#442);
#360=AXIS2_PLACEMENT_3D('',#534,#443,#444);
#361=AXIS2_PLACEMENT_3D('',#536,#445,#446);
#362=AXIS2_PLACEMENT_3D('',#537,#447,#448);
#363=AXIS2_PLACEMENT_3D('',#538,#449,#450);
#364=AXIS2_PLACEMENT_3D('',#540,#451,#452);
#365=AXIS2_PLACEMENT_3D('',#542,#453,#454);
#366=AXIS2_PLACEMENT_3D('',#543,#455,#456);
#367=AXIS2_PLACEMENT_3D('',#545,#457,#458);
#368=AXIS2_PLACEMENT_3D('',#546,#459,#460);
#369=AXIS2_PLACEMENT_3D('',#547,#461,#462);
#370=AXIS2_PLACEMENT_3D('',#549,#463,#464);
#371=AXIS2_PLACEMENT_3D('',#550,#465,#466);
#372=AXIS2_PLACEMENT_3D('',#552,#467,#468);
#373=DIRECTION('',(0.,0.,1.));
#374=DIRECTION('',(1.,0.,0.));
#375=DIRECTION('',(1.,-3.72835267217894E-13,0.));
#376=DIRECTION('',(3.72835267217894E-13,1.,0.));
#377=DIRECTION('',(1.,-3.72835267217894E-13,0.));
#378=DIRECTION('',(3.72835267217894E-13,1.,0.));
#379=DIRECTION('',(1.,-3.72835267217894E-13,0.));
#380=DIRECTION('',(3.72835267217894E-13,1.,0.));
#381=DIRECTION('',(-1.,3.72835267217894E-13,0.));
#382=DIRECTION('',(-3.72835267217894E-13,-1.,0.));
#383=DIRECTION('',(1.,-3.72835267217894E-13,0.));
#384=DIRECTION('',(3.72835267217894E-13,1.,0.));
#385=DIRECTION('',(1.,-3.72835267217894E-13,0.));
#386=DIRECTION('',(3.72835267217894E-13,1.,0.));
#387=DIRECTION('',(1.,-3.72835267217894E-13,0.));
#388=DIRECTION('',(3.72835267217894E-13,1.,0.));
#389=DIRECTION('',(1.,-3.72835267217894E-13,0.));
#390=DIRECTION('',(3.72835267217894E-13,1.,0.));
#391=DIRECTION('',(1.,-3.72835267217894E-13,0.));
#392=DIRECTION('',(3.72835267217894E-13,1.,0.));
#393=DIRECTION('',(-1.,3.72835267217894E-13,0.));
#394=DIRECTION('',(-3.72835267217894E-13,-1.,0.));
#395=DIRECTION('',(1.,-3.72835267217894E-13,0.));
#396=DIRECTION('',(3.72835267217894E-13,1.,0.));
#397=DIRECTION('',(-1.,3.72835267217894E-13,0.));
#398=DIRECTION('',(-3.72835267217894E-13,-1.,0.));
#399=DIRECTION('',(1.,-3.72835267217894E-13,0.));
#400=DIRECTION('',(3.72835267217894E-13,1.,0.));
#401=DIRECTION('',(-1.,3.72835267217894E-13,0.));
#402=DIRECTION('',(-3.72835267217894E-13,-1.,0.));
#403=DIRECTION('',(1.,-3.72835267217894E-13,0.));
#404=DIRECTION('',(3.72835267217894E-13,1.,0.));
#405=DIRECTION('',(1.,-3.72835267217894E-13,0.));
#406=DIRECTION('',(3.72835267217894E-13,1.,0.));
#407=DIRECTION('',(1.,0.,0.));
#408=DIRECTION('',(0.,0.,-1.));
#409=DIRECTION('',(1.,0.,0.));
#410=DIRECTION('',(0.,0.,-1.));
#411=DIRECTION('',(0.,0.5,0.866025403784439));
#412=DIRECTION('',(0.,-0.866025403784439,0.5));
#413=DIRECTION('',(0.,-0.866025403784439,0.5));
#414=DIRECTION('',(1.,0.,0.));
#415=DIRECTION('',(0.,-0.866025403784439,0.5));
#416=DIRECTION('',(1.,0.,0.));
#417=DIRECTION('',(0.,-0.5,0.866025403784439));
#418=DIRECTION('',(0.,-0.866025403784439,-0.5));
#419=DIRECTION('',(0.,-0.866025403784438,-0.5));
#420=DIRECTION('',(0.,-0.866025403784438,-0.5));
#421=DIRECTION('',(1.,0.,0.));
#422=DIRECTION('',(0.,-1.,0.));
#423=DIRECTION('',(0.,0.,-1.));
#424=DIRECTION('',(0.,0.,-1.));
#425=DIRECTION('',(0.,0.,-1.));
#426=DIRECTION('',(1.,0.,0.));
#427=DIRECTION('',(0.,-0.5,-0.866025403784439));
#428=DIRECTION('',(0.,0.866025403784439,-0.5));
#429=DIRECTION('',(0.,0.866025403784439,-0.5));
#430=DIRECTION('',(0.,0.866025403784439,-0.5));
#431=DIRECTION('',(1.,0.,0.));
#432=DIRECTION('',(0.,0.5,-0.866025403784439));
#433=DIRECTION('',(0.,0.866025403784439,0.5));
#434=DIRECTION('',(0.,0.866025403784438,0.5));
#435=DIRECTION('',(0.,0.866025403784438,0.5));
#436=DIRECTION('',(1.,0.,0.));
#437=DIRECTION('',(0.,1.,0.));
#438=DIRECTION('',(0.,0.,1.));
#439=DIRECTION('',(0.,0.,1.));
#440=DIRECTION('',(0.,0.,1.));
#441=DIRECTION('',(1.,0.,0.));
#442=DIRECTION('',(0.,0.,-1.));
#443=DIRECTION('',(1.,0.,0.));
#444=DIRECTION('',(0.,0.,-1.));
#445=DIRECTION('',(1.,0.,0.));
#446=DIRECTION('',(0.,0.,-1.));
#447=DIRECTION('',(1.,0.,0.));
#448=DIRECTION('',(0.,0.,-1.));
#449=DIRECTION('',(1.,0.,0.));
#450=DIRECTION('',(0.,0.,-1.));
#451=DIRECTION('',(1.,3.00430279844883E-18,0.));
#452=DIRECTION('',(-3.00430279844883E-18,1.,0.));
#453=DIRECTION('',(1.,0.,0.));
#454=DIRECTION('',(0.,0.,-1.));
#455=DIRECTION('',(1.,0.,0.));
#456=DIRECTION('',(0.,0.,-1.));
#457=DIRECTION('',(1.,0.,0.));
#458=DIRECTION('',(0.,0.,-1.));
#459=DIRECTION('',(-1.,-3.00430279844883E-18,0.));
#460=DIRECTION('',(3.00430279844883E-18,-1.,0.));
#461=DIRECTION('',(1.,3.00430279844883E-18,0.));
#462=DIRECTION('',(-3.00430279844883E-18,1.,0.));
#463=DIRECTION('',(1.,3.00430279844883E-18,0.));
#464=DIRECTION('',(-3.00430279844883E-18,1.,0.));
#465=DIRECTION('',(1.,3.00430279844883E-18,0.));
#466=DIRECTION('',(-3.00430279844883E-18,1.,0.));
#467=DIRECTION('',(-1.,-3.00430279844883E-18,0.));
#468=DIRECTION('',(3.00430279844883E-18,-1.,0.));
#469=CARTESIAN_POINT('',(0.,0.,0.));
#470=CARTESIAN_POINT('',(7.2435434277671,9.03539887129351E-25,0.));
#471=CARTESIAN_POINT('',(7.24354342776468,1.80728033386134E-24,0.));
#472=CARTESIAN_POINT('',(7.24354342776952,13.,0.));
#473=CARTESIAN_POINT('',(7.2435434277671,0.,0.));
#474=CARTESIAN_POINT('',(7.24354342776934,6.,0.));
#475=CARTESIAN_POINT('',(7.24354342776468,1.80728033386134E-24,0.));
#476=CARTESIAN_POINT('',(6.99999999999436,9.08015789737144E-14,0.));
#477=CARTESIAN_POINT('',(7.,15.1237686108328,0.));
#478=CARTESIAN_POINT('',(12.5049999999939,-1.96023752785379E-12,0.));
#479=CARTESIAN_POINT('',(17.9999999999944,-4.01038636042312E-12,0.));
#480=CARTESIAN_POINT('',(18.,15.1364703388789,0.));
#481=CARTESIAN_POINT('',(17.9999999999944,-4.01038636042312E-12,0.));
#482=CARTESIAN_POINT('',(17.7549999999931,-3.91904171995425E-12,0.));
#483=CARTESIAN_POINT('',(17.7549999999979,13.,0.));
#484=CARTESIAN_POINT('',(17.7550000000076,13.,0.));
#485=CARTESIAN_POINT('',(17.7550000000124,-3.91904171996147E-12,0.));
#486=CARTESIAN_POINT('',(17.7550000000154,7.9999999999956,0.));
#487=CARTESIAN_POINT('',(17.7550000000124,-3.91904171996147E-12,0.));
#488=CARTESIAN_POINT('',(18.0050000000125,-4.01225053676597E-12,0.));
#489=CARTESIAN_POINT('',(18.0050000000154,7.8003043397675,0.));
#490=CARTESIAN_POINT('',(18.0050000000135,7.8003043397675,0.));
#491=CARTESIAN_POINT('',(18.0050000000087,-4.01225053676454E-12,0.));
#492=CARTESIAN_POINT('',(18.0050000000108,5.75030433973174,0.));
#493=CARTESIAN_POINT('',(0.0849999999974413,-7.71951946809679E-14,0.));
#494=CARTESIAN_POINT('',(7.5,0.,0.));
#495=CARTESIAN_POINT('',(7.,0.,0.));
#496=CARTESIAN_POINT('',(7.,0.,-6.));
#497=CARTESIAN_POINT('',(4.5,7.5,4.33012701892219));
#498=CARTESIAN_POINT('',(7.,7.5,4.33012701892219));
#499=CARTESIAN_POINT('',(7.,7.5,4.33012701892219));
#500=CARTESIAN_POINT('',(7.,-8.88178419700125E-16,8.66025403784439));
#501=CARTESIAN_POINT('',(4.5,7.5,4.33012701892219));
#502=CARTESIAN_POINT('',(4.5,7.5,4.33012701892219));
#503=CARTESIAN_POINT('',(4.5,7.5,4.33012701892219));
#504=CARTESIAN_POINT('',(4.5,-8.88178419700125E-16,8.66025403784439));
#505=CARTESIAN_POINT('',(4.5,-8.88178419700125E-16,8.66025403784439));
#506=CARTESIAN_POINT('',(4.5,-8.88178419700125E-16,8.66025403784439));
#507=CARTESIAN_POINT('',(7.,-8.88178419700125E-16,8.66025403784439));
#508=CARTESIAN_POINT('',(7.,-7.5,4.33012701892219));
#509=CARTESIAN_POINT('',(4.5,-8.88178419700125E-16,8.66025403784439));
#510=CARTESIAN_POINT('',(4.5,-7.5,4.33012701892219));
#511=CARTESIAN_POINT('',(4.5,-7.5,4.33012701892219));
#512=CARTESIAN_POINT('',(4.5,-7.5,4.33012701892219));
#513=CARTESIAN_POINT('',(7.,-7.5,4.33012701892219));
#514=CARTESIAN_POINT('',(7.,-7.5,-4.33012701892219));
#515=CARTESIAN_POINT('',(4.5,-7.5,4.33012701892219));
#516=CARTESIAN_POINT('',(4.5,-7.5,-4.33012701892219));
#517=CARTESIAN_POINT('',(4.5,-7.5,-4.33012701892219));
#518=CARTESIAN_POINT('',(4.5,-7.5,-4.33012701892219));
#519=CARTESIAN_POINT('',(7.,-7.5,-4.33012701892219));
#520=CARTESIAN_POINT('',(7.,8.67361737988404E-16,-8.66025403784439));
#521=CARTESIAN_POINT('',(4.5,-7.5,-4.33012701892219));
#522=CARTESIAN_POINT('',(4.5,8.67361737988404E-16,-8.66025403784439));
#523=CARTESIAN_POINT('',(4.5,8.67361737988404E-16,-8.66025403784439));
#524=CARTESIAN_POINT('',(4.5,8.88178419700125E-16,-8.66025403784439));
#525=CARTESIAN_POINT('',(7.,8.88178419700125E-16,-8.66025403784439));
#526=CARTESIAN_POINT('',(7.,7.5,-4.33012701892219));
#527=CARTESIAN_POINT('',(4.5,8.88178419700125E-16,-8.66025403784439));
#528=CARTESIAN_POINT('',(4.5,7.5,-4.33012701892219));
#529=CARTESIAN_POINT('',(4.5,7.5,-4.33012701892219));
#530=CARTESIAN_POINT('',(4.5,7.5,-4.33012701892219));
#531=CARTESIAN_POINT('',(7.,7.5,-4.33012701892219));
#532=CARTESIAN_POINT('',(4.5,7.5,-4.33012701892219));
#533=CARTESIAN_POINT('',(4.5,0.,0.));
#534=CARTESIAN_POINT('',(4.5,0.,0.));
#535=CARTESIAN_POINT('',(4.5,0.,-6.));
#536=CARTESIAN_POINT('',(7.,0.,0.));
#537=CARTESIAN_POINT('',(0.,0.,0.));
#538=CARTESIAN_POINT('',(0.,0.,0.));
#539=CARTESIAN_POINT('',(0.,0.,-5.3));
#540=CARTESIAN_POINT('',(0.,0.,0.));
#541=CARTESIAN_POINT('',(-9.01290839534648E-18,3.,0.));
#542=CARTESIAN_POINT('',(0.,0.,0.));
#543=CARTESIAN_POINT('',(0.7,0.,0.));
#544=CARTESIAN_POINT('',(0.7,0.,-6.));
#545=CARTESIAN_POINT('',(7.5,0.,0.));
#546=CARTESIAN_POINT('',(0.,0.,0.));
#547=CARTESIAN_POINT('',(0.5415,1.62682996536004E-18,0.));
#548=CARTESIAN_POINT('',(0.5415,2.4585,0.));
#549=CARTESIAN_POINT('',(18.4772158318793,5.55111512312578E-17,0.));
#550=CARTESIAN_POINT('',(17.,5.10731475736301E-17,0.));
#551=CARTESIAN_POINT('',(17.,2.4585,0.));
#552=CARTESIAN_POINT('',(17.,5.10731475736301E-17,0.));
#553=CARTESIAN_POINT('',(18.4772158318793,0.,0.));
#554=MECHANICAL_DESIGN_GEOMETRIC_PRESENTATION_REPRESENTATION('',(#323),
#555);
#555=(
GEOMETRIC_REPRESENTATION_CONTEXT(3)
GLOBAL_UNCERTAINTY_ASSIGNED_CONTEXT((#556))
GLOBAL_UNIT_ASSIGNED_CONTEXT((#559,#558,#557))
REPRESENTATION_CONTEXT('CRPN43-2Z','TOP_LEVEL_ASSEMBLY_PART')
);
#556=UNCERTAINTY_MEASURE_WITH_UNIT(LENGTH_MEASURE(0.005),#559,
'DISTANCE_ACCURACY_VALUE','Maximum Tolerance applied to model');
#557=(
NAMED_UNIT(*)
SI_UNIT($,.STERADIAN.)
SOLID_ANGLE_UNIT()
);
#558=(
NAMED_UNIT(*)
PLANE_ANGLE_UNIT()
SI_UNIT($,.RADIAN.)
);
#559=(
LENGTH_UNIT()
NAMED_UNIT(*)
SI_UNIT(.MILLI.,.METRE.)
);
#560=PRODUCT_DEFINITION_SHAPE('','',#561);
#561=PRODUCT_DEFINITION('','',#563,#562);
#562=PRODUCT_DEFINITION_CONTEXT('',#569,'design');
#563=PRODUCT_DEFINITION_FORMATION_WITH_SPECIFIED_SOURCE('','',#565,
 .NOT_KNOWN.);
#564=PRODUCT_RELATED_PRODUCT_CATEGORY('','',(#565));
#565=PRODUCT('CRPN43-2Z','CRPN43-2Z','CRPN43-2Z',(#567));
#566=PRODUCT_CATEGORY('','');
#567=PRODUCT_CONTEXT('',#569,'mechanical');
#568=APPLICATION_PROTOCOL_DEFINITION('international standard',
'automotive_design',2010,#569);
#569=APPLICATION_CONTEXT(
'core data for automotive mechanical design processes');
ENDSEC;
END-ISO-10303-21;
