ISO-10303-21;
HEADER;
/* Generated by software containing ST-Developer
 * from STEP Tools, Inc. (www.steptools.com) 
 */
/* OPTION: using custom renumber hook */

FILE_DESCRIPTION(
/* description */ ('STEP AP203'),
/* implementation_level */ '2;1');

FILE_NAME(
/* name */ 'PMK35-4',
/* time_stamp */ '2024-04-26T15:30:40+02:00',
/* author */ ('License CC BY-ND 4.0'),
/* organization */ ('CADENAS'),
/* preprocessor_version */ 'ST-DEVELOPER v19.3',
/* originating_system */ 'PARTsolutions',
/* authorisation */ '  ');

FILE_SCHEMA (('CONFIG_CONTROL_DESIGN'));
ENDSEC;

DATA;
#10=PROPERTY_DEFINITION_REPRESENTATION(#14,#12);
#11=PROPERTY_DEFINITION_REPRESENTATION(#15,#13);
#12=REPRESENTATION('',(#16),#321);
#13=REPRESENTATION('',(#17),#321);
#14=PROPERTY_DEFINITION('pmi validation property','',#326);
#15=PROPERTY_DEFINITION('pmi validation property','',#326);
#16=VALUE_REPRESENTATION_ITEM('number of annotations',COUNT_MEASURE(0.));
#17=VALUE_REPRESENTATION_ITEM('number of views',COUNT_MEASURE(0.));
#18=SHAPE_REPRESENTATION_RELATIONSHIP('','',#203,#19);
#19=ADVANCED_BREP_SHAPE_REPRESENTATION('',(#201),#321);
#20=CYLINDRICAL_SURFACE('',#219,4.25);
#21=CYLINDRICAL_SURFACE('',#220,4.25);
#22=CYLINDRICAL_SURFACE('',#221,4.25);
#23=CYLINDRICAL_SURFACE('',#222,4.25);
#24=CIRCLE('',#207,4.25);
#25=CIRCLE('',#208,4.25);
#26=CIRCLE('',#209,4.25);
#27=CIRCLE('',#210,4.25);
#28=CIRCLE('',#213,4.25);
#29=CIRCLE('',#214,4.25);
#30=CIRCLE('',#215,4.25);
#31=CIRCLE('',#216,4.25);
#32=ORIENTED_EDGE('',*,*,#72,.T.);
#33=ORIENTED_EDGE('',*,*,#73,.F.);
#34=ORIENTED_EDGE('',*,*,#74,.F.);
#35=ORIENTED_EDGE('',*,*,#75,.T.);
#36=ORIENTED_EDGE('',*,*,#76,.F.);
#37=ORIENTED_EDGE('',*,*,#77,.F.);
#38=ORIENTED_EDGE('',*,*,#78,.F.);
#39=ORIENTED_EDGE('',*,*,#79,.F.);
#40=ORIENTED_EDGE('',*,*,#80,.T.);
#41=ORIENTED_EDGE('',*,*,#81,.F.);
#42=ORIENTED_EDGE('',*,*,#82,.F.);
#43=ORIENTED_EDGE('',*,*,#73,.T.);
#44=ORIENTED_EDGE('',*,*,#83,.T.);
#45=ORIENTED_EDGE('',*,*,#84,.F.);
#46=ORIENTED_EDGE('',*,*,#85,.F.);
#47=ORIENTED_EDGE('',*,*,#81,.T.);
#48=ORIENTED_EDGE('',*,*,#86,.F.);
#49=ORIENTED_EDGE('',*,*,#87,.F.);
#50=ORIENTED_EDGE('',*,*,#88,.F.);
#51=ORIENTED_EDGE('',*,*,#89,.F.);
#52=ORIENTED_EDGE('',*,*,#90,.T.);
#53=ORIENTED_EDGE('',*,*,#75,.F.);
#54=ORIENTED_EDGE('',*,*,#91,.F.);
#55=ORIENTED_EDGE('',*,*,#84,.T.);
#56=ORIENTED_EDGE('',*,*,#74,.T.);
#57=ORIENTED_EDGE('',*,*,#82,.T.);
#58=ORIENTED_EDGE('',*,*,#85,.T.);
#59=ORIENTED_EDGE('',*,*,#91,.T.);
#60=ORIENTED_EDGE('',*,*,#72,.F.);
#61=ORIENTED_EDGE('',*,*,#90,.F.);
#62=ORIENTED_EDGE('',*,*,#83,.F.);
#63=ORIENTED_EDGE('',*,*,#80,.F.);
#64=ORIENTED_EDGE('',*,*,#89,.T.);
#65=ORIENTED_EDGE('',*,*,#79,.T.);
#66=ORIENTED_EDGE('',*,*,#88,.T.);
#67=ORIENTED_EDGE('',*,*,#78,.T.);
#68=ORIENTED_EDGE('',*,*,#87,.T.);
#69=ORIENTED_EDGE('',*,*,#77,.T.);
#70=ORIENTED_EDGE('',*,*,#86,.T.);
#71=ORIENTED_EDGE('',*,*,#76,.T.);
#72=EDGE_CURVE('',#92,#93,#108,.T.);
#73=EDGE_CURVE('',#94,#93,#109,.T.);
#74=EDGE_CURVE('',#95,#94,#110,.T.);
#75=EDGE_CURVE('',#95,#92,#111,.T.);
#76=EDGE_CURVE('',#96,#96,#24,.F.);
#77=EDGE_CURVE('',#97,#97,#25,.F.);
#78=EDGE_CURVE('',#98,#98,#26,.F.);
#79=EDGE_CURVE('',#99,#99,#27,.F.);
#80=EDGE_CURVE('',#93,#100,#112,.T.);
#81=EDGE_CURVE('',#101,#100,#113,.T.);
#82=EDGE_CURVE('',#94,#101,#114,.T.);
#83=EDGE_CURVE('',#100,#102,#115,.T.);
#84=EDGE_CURVE('',#103,#102,#116,.T.);
#85=EDGE_CURVE('',#101,#103,#117,.T.);
#86=EDGE_CURVE('',#104,#104,#28,.F.);
#87=EDGE_CURVE('',#105,#105,#29,.F.);
#88=EDGE_CURVE('',#106,#106,#30,.F.);
#89=EDGE_CURVE('',#107,#107,#31,.F.);
#90=EDGE_CURVE('',#102,#92,#118,.T.);
#91=EDGE_CURVE('',#103,#95,#119,.T.);
#92=VERTEX_POINT('',#276);
#93=VERTEX_POINT('',#277);
#94=VERTEX_POINT('',#279);
#95=VERTEX_POINT('',#281);
#96=VERTEX_POINT('',#285);
#97=VERTEX_POINT('',#287);
#98=VERTEX_POINT('',#289);
#99=VERTEX_POINT('',#291);
#100=VERTEX_POINT('',#293);
#101=VERTEX_POINT('',#295);
#102=VERTEX_POINT('',#299);
#103=VERTEX_POINT('',#301);
#104=VERTEX_POINT('',#305);
#105=VERTEX_POINT('',#307);
#106=VERTEX_POINT('',#309);
#107=VERTEX_POINT('',#311);
#108=LINE('',#275,#120);
#109=LINE('',#278,#121);
#110=LINE('',#280,#122);
#111=LINE('',#282,#123);
#112=LINE('',#292,#124);
#113=LINE('',#294,#125);
#114=LINE('',#296,#126);
#115=LINE('',#298,#127);
#116=LINE('',#300,#128);
#117=LINE('',#302,#129);
#118=LINE('',#312,#130);
#119=LINE('',#313,#131);
#120=VECTOR('',#227,1000.);
#121=VECTOR('',#228,1000.);
#122=VECTOR('',#229,1000.);
#123=VECTOR('',#230,1000.);
#124=VECTOR('',#241,1000.);
#125=VECTOR('',#242,1000.);
#126=VECTOR('',#243,1000.);
#127=VECTOR('',#246,1000.);
#128=VECTOR('',#247,1000.);
#129=VECTOR('',#248,1000.);
#130=VECTOR('',#259,1000.);
#131=VECTOR('',#260,1000.);
#132=EDGE_LOOP('',(#32,#33,#34,#35));
#133=EDGE_LOOP('',(#36));
#134=EDGE_LOOP('',(#37));
#135=EDGE_LOOP('',(#38));
#136=EDGE_LOOP('',(#39));
#137=EDGE_LOOP('',(#40,#41,#42,#43));
#138=EDGE_LOOP('',(#44,#45,#46,#47));
#139=EDGE_LOOP('',(#48));
#140=EDGE_LOOP('',(#49));
#141=EDGE_LOOP('',(#50));
#142=EDGE_LOOP('',(#51));
#143=EDGE_LOOP('',(#52,#53,#54,#55));
#144=EDGE_LOOP('',(#56,#57,#58,#59));
#145=EDGE_LOOP('',(#60,#61,#62,#63));
#146=EDGE_LOOP('',(#64));
#147=EDGE_LOOP('',(#65));
#148=EDGE_LOOP('',(#66));
#149=EDGE_LOOP('',(#67));
#150=EDGE_LOOP('',(#68));
#151=EDGE_LOOP('',(#69));
#152=EDGE_LOOP('',(#70));
#153=EDGE_LOOP('',(#71));
#154=FACE_BOUND('',#132,.T.);
#155=FACE_BOUND('',#133,.T.);
#156=FACE_BOUND('',#134,.T.);
#157=FACE_BOUND('',#135,.T.);
#158=FACE_BOUND('',#136,.T.);
#159=FACE_BOUND('',#137,.T.);
#160=FACE_BOUND('',#138,.T.);
#161=FACE_BOUND('',#139,.T.);
#162=FACE_BOUND('',#140,.T.);
#163=FACE_BOUND('',#141,.T.);
#164=FACE_BOUND('',#142,.T.);
#165=FACE_BOUND('',#143,.T.);
#166=FACE_BOUND('',#144,.T.);
#167=FACE_BOUND('',#145,.T.);
#168=FACE_BOUND('',#146,.T.);
#169=FACE_BOUND('',#147,.T.);
#170=FACE_BOUND('',#148,.T.);
#171=FACE_BOUND('',#149,.T.);
#172=FACE_BOUND('',#150,.T.);
#173=FACE_BOUND('',#151,.T.);
#174=FACE_BOUND('',#152,.T.);
#175=FACE_BOUND('',#153,.T.);
#176=PLANE('',#205);
#177=PLANE('',#206);
#178=PLANE('',#211);
#179=PLANE('',#212);
#180=PLANE('',#217);
#181=PLANE('',#218);
#182=ADVANCED_FACE('',(#154),#176,.F.);
#183=ADVANCED_FACE('',(#155,#156,#157,#158,#159),#177,.F.);
#184=ADVANCED_FACE('',(#160),#178,.F.);
#185=ADVANCED_FACE('',(#161,#162,#163,#164,#165),#179,.F.);
#186=ADVANCED_FACE('',(#166),#180,.T.);
#187=ADVANCED_FACE('',(#167),#181,.F.);
#188=ADVANCED_FACE('',(#168,#169),#20,.F.);
#189=ADVANCED_FACE('',(#170,#171),#21,.F.);
#190=ADVANCED_FACE('',(#172,#173),#22,.F.);
#191=ADVANCED_FACE('',(#174,#175),#23,.F.);
#192=CLOSED_SHELL('',(#182,#183,#184,#185,#186,#187,#188,#189,#190,#191));
#193=STYLED_ITEM('',(#194),#201);
#194=PRESENTATION_STYLE_ASSIGNMENT((#195));
#195=SURFACE_STYLE_USAGE(.BOTH.,#196);
#196=SURFACE_SIDE_STYLE('',(#197));
#197=SURFACE_STYLE_FILL_AREA(#198);
#198=FILL_AREA_STYLE('',(#199));
#199=FILL_AREA_STYLE_COLOUR('',#200);
#200=COLOUR_RGB('',0.689999997615814,0.689999997615814,0.689999997615814);
#201=MANIFOLD_SOLID_BREP('PMK35-4',#192);
#202=SHAPE_DEFINITION_REPRESENTATION(#326,#203);
#203=SHAPE_REPRESENTATION('PMK35-4',(#204),#321);
#204=AXIS2_PLACEMENT_3D('',#273,#223,#224);
#205=AXIS2_PLACEMENT_3D('',#274,#225,#226);
#206=AXIS2_PLACEMENT_3D('',#283,#231,#232);
#207=AXIS2_PLACEMENT_3D('',#284,#233,#234);
#208=AXIS2_PLACEMENT_3D('',#286,#235,#236);
#209=AXIS2_PLACEMENT_3D('',#288,#237,#238);
#210=AXIS2_PLACEMENT_3D('',#290,#239,#240);
#211=AXIS2_PLACEMENT_3D('',#297,#244,#245);
#212=AXIS2_PLACEMENT_3D('',#303,#249,#250);
#213=AXIS2_PLACEMENT_3D('',#304,#251,#252);
#214=AXIS2_PLACEMENT_3D('',#306,#253,#254);
#215=AXIS2_PLACEMENT_3D('',#308,#255,#256);
#216=AXIS2_PLACEMENT_3D('',#310,#257,#258);
#217=AXIS2_PLACEMENT_3D('',#314,#261,#262);
#218=AXIS2_PLACEMENT_3D('',#315,#263,#264);
#219=AXIS2_PLACEMENT_3D('',#316,#265,#266);
#220=AXIS2_PLACEMENT_3D('',#317,#267,#268);
#221=AXIS2_PLACEMENT_3D('',#318,#269,#270);
#222=AXIS2_PLACEMENT_3D('',#319,#271,#272);
#223=DIRECTION('',(0.,0.,1.));
#224=DIRECTION('',(1.,0.,0.));
#225=DIRECTION('',(0.,0.,-1.));
#226=DIRECTION('',(-1.,0.,0.));
#227=DIRECTION('',(0.,-1.,0.));
#228=DIRECTION('',(-1.,0.,0.));
#229=DIRECTION('',(0.,-1.,0.));
#230=DIRECTION('',(-1.,0.,0.));
#231=DIRECTION('',(0.,1.,0.));
#232=DIRECTION('',(0.,0.,1.));
#233=DIRECTION('',(0.,1.,0.));
#234=DIRECTION('',(0.,0.,1.));
#235=DIRECTION('',(0.,1.,0.));
#236=DIRECTION('',(0.,0.,1.));
#237=DIRECTION('',(0.,1.,0.));
#238=DIRECTION('',(0.,0.,1.));
#239=DIRECTION('',(0.,1.,0.));
#240=DIRECTION('',(0.,0.,1.));
#241=DIRECTION('',(0.,0.,-1.));
#242=DIRECTION('',(-1.,0.,0.));
#243=DIRECTION('',(0.,0.,-1.));
#244=DIRECTION('',(0.,0.,1.));
#245=DIRECTION('',(1.,0.,0.));
#246=DIRECTION('',(0.,1.,0.));
#247=DIRECTION('',(-1.,0.,0.));
#248=DIRECTION('',(0.,1.,0.));
#249=DIRECTION('',(0.,-1.,0.));
#250=DIRECTION('',(0.,0.,-1.));
#251=DIRECTION('',(0.,-1.,0.));
#252=DIRECTION('',(0.,0.,-1.));
#253=DIRECTION('',(0.,-1.,0.));
#254=DIRECTION('',(0.,0.,-1.));
#255=DIRECTION('',(0.,-1.,0.));
#256=DIRECTION('',(0.,0.,-1.));
#257=DIRECTION('',(0.,-1.,0.));
#258=DIRECTION('',(0.,0.,-1.));
#259=DIRECTION('',(0.,0.,1.));
#260=DIRECTION('',(0.,0.,1.));
#261=DIRECTION('',(1.,0.,0.));
#262=DIRECTION('',(0.,0.,-1.));
#263=DIRECTION('',(1.,0.,0.));
#264=DIRECTION('',(0.,0.,-1.));
#265=DIRECTION('',(0.,1.,0.));
#266=DIRECTION('',(0.,0.,1.));
#267=DIRECTION('',(0.,1.,0.));
#268=DIRECTION('',(0.,0.,1.));
#269=DIRECTION('',(0.,1.,0.));
#270=DIRECTION('',(0.,0.,1.));
#271=DIRECTION('',(0.,1.,0.));
#272=DIRECTION('',(0.,0.,1.));
#273=CARTESIAN_POINT('',(0.,0.,0.));
#274=CARTESIAN_POINT('',(19.5,4.,50.));
#275=CARTESIAN_POINT('',(-19.5,4.,50.));
#276=CARTESIAN_POINT('',(-19.5,4.,50.));
#277=CARTESIAN_POINT('',(-19.5,0.,50.));
#278=CARTESIAN_POINT('',(19.5,0.,50.));
#279=CARTESIAN_POINT('',(19.5,0.,50.));
#280=CARTESIAN_POINT('',(19.5,4.,50.));
#281=CARTESIAN_POINT('',(19.5,4.,50.));
#282=CARTESIAN_POINT('',(19.5,4.,50.));
#283=CARTESIAN_POINT('',(19.5,0.,50.));
#284=CARTESIAN_POINT('',(12.,0.,12.));
#285=CARTESIAN_POINT('',(12.,0.,16.25));
#286=CARTESIAN_POINT('',(-12.,0.,12.));
#287=CARTESIAN_POINT('',(-12.,0.,16.25));
#288=CARTESIAN_POINT('',(12.,0.,-12.));
#289=CARTESIAN_POINT('',(12.,0.,-7.75));
#290=CARTESIAN_POINT('',(-12.,0.,-12.));
#291=CARTESIAN_POINT('',(-12.,0.,-7.75));
#292=CARTESIAN_POINT('',(-19.5,0.,50.));
#293=CARTESIAN_POINT('',(-19.5,0.,-50.));
#294=CARTESIAN_POINT('',(19.5,0.,-50.));
#295=CARTESIAN_POINT('',(19.5,0.,-50.));
#296=CARTESIAN_POINT('',(19.5,0.,50.));
#297=CARTESIAN_POINT('',(19.5,0.,-50.));
#298=CARTESIAN_POINT('',(-19.5,0.,-50.));
#299=CARTESIAN_POINT('',(-19.5,4.,-50.));
#300=CARTESIAN_POINT('',(19.5,4.,-50.));
#301=CARTESIAN_POINT('',(19.5,4.,-50.));
#302=CARTESIAN_POINT('',(19.5,0.,-50.));
#303=CARTESIAN_POINT('',(19.5,4.,-50.));
#304=CARTESIAN_POINT('',(12.,4.,12.));
#305=CARTESIAN_POINT('',(12.,4.,7.75));
#306=CARTESIAN_POINT('',(-12.,4.,12.));
#307=CARTESIAN_POINT('',(-12.,4.,7.75));
#308=CARTESIAN_POINT('',(12.,4.,-12.));
#309=CARTESIAN_POINT('',(12.,4.,-16.25));
#310=CARTESIAN_POINT('',(-12.,4.,-12.));
#311=CARTESIAN_POINT('',(-12.,4.,-16.25));
#312=CARTESIAN_POINT('',(-19.5,4.,-50.));
#313=CARTESIAN_POINT('',(19.5,4.,-50.));
#314=CARTESIAN_POINT('',(19.5,0.,0.));
#315=CARTESIAN_POINT('',(-19.5,0.,0.));
#316=CARTESIAN_POINT('',(-12.,4.09999999999999,-12.));
#317=CARTESIAN_POINT('',(12.,4.1,-12.));
#318=CARTESIAN_POINT('',(-12.,4.09999999999999,12.));
#319=CARTESIAN_POINT('',(12.,4.1,12.));
#320=MECHANICAL_DESIGN_GEOMETRIC_PRESENTATION_REPRESENTATION('',(#193),
#321);
#321=(
GEOMETRIC_REPRESENTATION_CONTEXT(3)
GLOBAL_UNCERTAINTY_ASSIGNED_CONTEXT((#322))
GLOBAL_UNIT_ASSIGNED_CONTEXT((#325,#324,#323))
REPRESENTATION_CONTEXT('PMK35-4','TOP_LEVEL_ASSEMBLY_PART')
);
#322=UNCERTAINTY_MEASURE_WITH_UNIT(LENGTH_MEASURE(0.005),#325,
'DISTANCE_ACCURACY_VALUE','Maximum Tolerance applied to model');
#323=(
NAMED_UNIT(*)
SI_UNIT($,.STERADIAN.)
SOLID_ANGLE_UNIT()
);
#324=(
NAMED_UNIT(*)
PLANE_ANGLE_UNIT()
SI_UNIT($,.RADIAN.)
);
#325=(
LENGTH_UNIT()
NAMED_UNIT(*)
SI_UNIT(.MILLI.,.METRE.)
);
#326=PRODUCT_DEFINITION_SHAPE('','',#327);
#327=PRODUCT_DEFINITION('','',#329,#328);
#328=DESIGN_CONTEXT('',#335,'design');
#329=PRODUCT_DEFINITION_FORMATION_WITH_SPECIFIED_SOURCE('','',#331,
 .NOT_KNOWN.);
#330=PRODUCT_RELATED_PRODUCT_CATEGORY('','',(#331));
#331=PRODUCT('PMK35-4','PMK35-4','PMK35-4',(#333));
#332=PRODUCT_CATEGORY('','');
#333=MECHANICAL_CONTEXT('',#335,'mechanical');
#334=APPLICATION_PROTOCOL_DEFINITION('international standard',
'config_control_design',2010,#335);
#335=APPLICATION_CONTEXT(
'configuration controlled 3D designs of mechanical parts and assemblie
s');
ENDSEC;
END-ISO-10303-21;
