ISO-10303-21;
HEADER;
/* Generated by software containing ST-Developer
 * from STEP Tools, Inc. (www.steptools.com) 
 */
/* OPTION: using custom renumber hook */

FILE_DESCRIPTION(
/* description */ ('STEP AP214'),
/* implementation_level */ '2;1');

FILE_NAME(
/* name */ 'CRPA63-2ZR',
/* time_stamp */ '2024-08-06T11:33:50+02:00',
/* author */ ('License CC BY-ND 4.0'),
/* organization */ ('CADENAS'),
/* preprocessor_version */ 'ST-DEVELOPER v19.3',
/* originating_system */ 'PARTsolutions',
/* authorisation */ '  ');

FILE_SCHEMA (('AUTOMOTIVE_DESIGN {1 0 10303 214 3 1 1}'));
ENDSEC;

DATA;
#10=PROPERTY_DEFINITION_REPRESENTATION(#14,#12);
#11=PROPERTY_DEFINITION_REPRESENTATION(#15,#13);
#12=REPRESENTATION('',(#16),#619);
#13=REPRESENTATION('',(#17),#619);
#14=PROPERTY_DEFINITION('pmi validation property','',#624);
#15=PROPERTY_DEFINITION('pmi validation property','',#624);
#16=VALUE_REPRESENTATION_ITEM('number of annotations',COUNT_MEASURE(0.));
#17=VALUE_REPRESENTATION_ITEM('number of views',COUNT_MEASURE(0.));
#18=SHAPE_REPRESENTATION_RELATIONSHIP('','',#369,#19);
#19=ADVANCED_BREP_SHAPE_REPRESENTATION('',(#367),#619);
#20=CYLINDRICAL_SURFACE('',#409,9.);
#21=CYLINDRICAL_SURFACE('',#412,4.188);
#22=VERTEX_LOOP('',#197);
#23=VERTEX_LOOP('',#210);
#24=SPHERICAL_SURFACE('',#393,40.999999999996);
#25=TOROIDAL_SURFACE('',#377,22.0564025008423,2.);
#26=TOROIDAL_SURFACE('',#379,15.85,9.);
#27=TOROIDAL_SURFACE('',#381,22.0564025008423,1.99999999999999);
#28=CONICAL_SURFACE('',#373,17.,1.39712512845332);
#29=CONICAL_SURFACE('',#385,19.85,1.39712512845329);
#30=CONICAL_SURFACE('',#389,12.,1.34843776533767);
#31=CONICAL_SURFACE('',#395,1.45525331975665,1.04719755119647);
#32=CONICAL_SURFACE('',#407,8.,0.785398163397449);
#33=CONICAL_SURFACE('',#410,5.,0.785398163397448);
#34=CONICAL_SURFACE('',#414,4.188,1.02974425867665);
#35=LINE('',#527,#53);
#36=LINE('',#530,#54);
#37=LINE('',#532,#55);
#38=LINE('',#534,#56);
#39=LINE('',#536,#57);
#40=LINE('',#538,#58);
#41=LINE('',#575,#59);
#42=LINE('',#577,#60);
#43=LINE('',#579,#61);
#44=LINE('',#581,#62);
#45=LINE('',#583,#63);
#46=LINE('',#585,#64);
#47=LINE('',#587,#65);
#48=LINE('',#589,#66);
#49=LINE('',#591,#67);
#50=LINE('',#593,#68);
#51=LINE('',#595,#69);
#52=LINE('',#597,#70);
#53=VECTOR('',#421,1000.);
#54=VECTOR('',#422,1000.);
#55=VECTOR('',#423,1000.);
#56=VECTOR('',#424,1000.);
#57=VECTOR('',#425,1000.);
#58=VECTOR('',#426,1000.);
#59=VECTOR('',#475,1000.);
#60=VECTOR('',#476,1000.);
#61=VECTOR('',#477,1000.);
#62=VECTOR('',#480,1000.);
#63=VECTOR('',#481,1000.);
#64=VECTOR('',#484,1000.);
#65=VECTOR('',#485,1000.);
#66=VECTOR('',#488,1000.);
#67=VECTOR('',#489,1000.);
#68=VECTOR('',#492,1000.);
#69=VECTOR('',#493,1000.);
#70=VECTOR('',#496,1000.);
#71=ORIENTED_EDGE('',*,*,#143,.F.);
#72=ORIENTED_EDGE('',*,*,#144,.T.);
#73=ORIENTED_EDGE('',*,*,#145,.T.);
#74=ORIENTED_EDGE('',*,*,#146,.T.);
#75=ORIENTED_EDGE('',*,*,#147,.T.);
#76=ORIENTED_EDGE('',*,*,#148,.T.);
#77=ORIENTED_EDGE('',*,*,#149,.T.);
#78=ORIENTED_EDGE('',*,*,#150,.F.);
#79=ORIENTED_EDGE('',*,*,#143,.T.);
#80=ORIENTED_EDGE('',*,*,#151,.F.);
#81=ORIENTED_EDGE('',*,*,#150,.T.);
#82=ORIENTED_EDGE('',*,*,#152,.F.);
#83=ORIENTED_EDGE('',*,*,#151,.T.);
#84=ORIENTED_EDGE('',*,*,#152,.T.);
#85=ORIENTED_EDGE('',*,*,#153,.F.);
#86=ORIENTED_EDGE('',*,*,#154,.F.);
#87=ORIENTED_EDGE('',*,*,#153,.T.);
#88=ORIENTED_EDGE('',*,*,#155,.F.);
#89=ORIENTED_EDGE('',*,*,#154,.T.);
#90=ORIENTED_EDGE('',*,*,#156,.F.);
#91=ORIENTED_EDGE('',*,*,#155,.T.);
#92=ORIENTED_EDGE('',*,*,#157,.F.);
#93=ORIENTED_EDGE('',*,*,#156,.T.);
#94=ORIENTED_EDGE('',*,*,#158,.F.);
#95=ORIENTED_EDGE('',*,*,#157,.T.);
#96=ORIENTED_EDGE('',*,*,#159,.F.);
#97=ORIENTED_EDGE('',*,*,#158,.T.);
#98=ORIENTED_EDGE('',*,*,#159,.T.);
#99=ORIENTED_EDGE('',*,*,#160,.F.);
#100=ORIENTED_EDGE('',*,*,#160,.T.);
#101=ORIENTED_EDGE('',*,*,#145,.F.);
#102=ORIENTED_EDGE('',*,*,#161,.F.);
#103=ORIENTED_EDGE('',*,*,#162,.T.);
#104=ORIENTED_EDGE('',*,*,#163,.T.);
#105=ORIENTED_EDGE('',*,*,#146,.F.);
#106=ORIENTED_EDGE('',*,*,#163,.F.);
#107=ORIENTED_EDGE('',*,*,#164,.T.);
#108=ORIENTED_EDGE('',*,*,#165,.T.);
#109=ORIENTED_EDGE('',*,*,#147,.F.);
#110=ORIENTED_EDGE('',*,*,#165,.F.);
#111=ORIENTED_EDGE('',*,*,#166,.T.);
#112=ORIENTED_EDGE('',*,*,#167,.T.);
#113=ORIENTED_EDGE('',*,*,#148,.F.);
#114=ORIENTED_EDGE('',*,*,#167,.F.);
#115=ORIENTED_EDGE('',*,*,#168,.T.);
#116=ORIENTED_EDGE('',*,*,#169,.T.);
#117=ORIENTED_EDGE('',*,*,#149,.F.);
#118=ORIENTED_EDGE('',*,*,#169,.F.);
#119=ORIENTED_EDGE('',*,*,#170,.T.);
#120=ORIENTED_EDGE('',*,*,#171,.T.);
#121=ORIENTED_EDGE('',*,*,#144,.F.);
#122=ORIENTED_EDGE('',*,*,#171,.F.);
#123=ORIENTED_EDGE('',*,*,#172,.T.);
#124=ORIENTED_EDGE('',*,*,#161,.T.);
#125=ORIENTED_EDGE('',*,*,#173,.T.);
#126=ORIENTED_EDGE('',*,*,#162,.F.);
#127=ORIENTED_EDGE('',*,*,#172,.F.);
#128=ORIENTED_EDGE('',*,*,#170,.F.);
#129=ORIENTED_EDGE('',*,*,#168,.F.);
#130=ORIENTED_EDGE('',*,*,#166,.F.);
#131=ORIENTED_EDGE('',*,*,#164,.F.);
#132=ORIENTED_EDGE('',*,*,#174,.F.);
#133=ORIENTED_EDGE('',*,*,#175,.T.);
#134=ORIENTED_EDGE('',*,*,#176,.F.);
#135=ORIENTED_EDGE('',*,*,#174,.T.);
#136=ORIENTED_EDGE('',*,*,#173,.F.);
#137=ORIENTED_EDGE('',*,*,#176,.T.);
#138=ORIENTED_EDGE('',*,*,#177,.T.);
#139=ORIENTED_EDGE('',*,*,#175,.F.);
#140=ORIENTED_EDGE('',*,*,#178,.T.);
#141=ORIENTED_EDGE('',*,*,#177,.F.);
#142=ORIENTED_EDGE('',*,*,#178,.F.);
#143=EDGE_CURVE('',#179,#179,#211,.T.);
#144=EDGE_CURVE('',#180,#181,#35,.T.);
#145=EDGE_CURVE('',#181,#182,#36,.T.);
#146=EDGE_CURVE('',#182,#183,#37,.T.);
#147=EDGE_CURVE('',#183,#184,#38,.T.);
#148=EDGE_CURVE('',#184,#185,#39,.T.);
#149=EDGE_CURVE('',#185,#180,#40,.T.);
#150=EDGE_CURVE('',#186,#186,#212,.T.);
#151=EDGE_CURVE('',#187,#187,#213,.T.);
#152=EDGE_CURVE('',#188,#188,#214,.T.);
#153=EDGE_CURVE('',#189,#189,#215,.T.);
#154=EDGE_CURVE('',#190,#190,#216,.T.);
#155=EDGE_CURVE('',#191,#191,#217,.T.);
#156=EDGE_CURVE('',#192,#192,#218,.T.);
#157=EDGE_CURVE('',#193,#193,#219,.T.);
#158=EDGE_CURVE('',#194,#194,#220,.T.);
#159=EDGE_CURVE('',#195,#195,#221,.T.);
#160=EDGE_CURVE('',#196,#196,#222,.T.);
#161=EDGE_CURVE('',#198,#181,#41,.T.);
#162=EDGE_CURVE('',#198,#199,#42,.T.);
#163=EDGE_CURVE('',#199,#182,#43,.T.);
#164=EDGE_CURVE('',#199,#200,#44,.T.);
#165=EDGE_CURVE('',#200,#183,#45,.T.);
#166=EDGE_CURVE('',#200,#201,#46,.T.);
#167=EDGE_CURVE('',#201,#184,#47,.T.);
#168=EDGE_CURVE('',#201,#202,#48,.T.);
#169=EDGE_CURVE('',#202,#185,#49,.T.);
#170=EDGE_CURVE('',#202,#203,#50,.T.);
#171=EDGE_CURVE('',#203,#180,#51,.T.);
#172=EDGE_CURVE('',#203,#198,#52,.T.);
#173=EDGE_CURVE('',#204,#204,#223,.T.);
#174=EDGE_CURVE('',#205,#205,#224,.T.);
#175=EDGE_CURVE('',#206,#206,#225,.T.);
#176=EDGE_CURVE('',#207,#207,#226,.T.);
#177=EDGE_CURVE('',#208,#208,#227,.T.);
#178=EDGE_CURVE('',#209,#209,#228,.T.);
#179=VERTEX_POINT('',#526);
#180=VERTEX_POINT('',#528);
#181=VERTEX_POINT('',#529);
#182=VERTEX_POINT('',#531);
#183=VERTEX_POINT('',#533);
#184=VERTEX_POINT('',#535);
#185=VERTEX_POINT('',#537);
#186=VERTEX_POINT('',#541);
#187=VERTEX_POINT('',#544);
#188=VERTEX_POINT('',#547);
#189=VERTEX_POINT('',#550);
#190=VERTEX_POINT('',#553);
#191=VERTEX_POINT('',#556);
#192=VERTEX_POINT('',#559);
#193=VERTEX_POINT('',#562);
#194=VERTEX_POINT('',#565);
#195=VERTEX_POINT('',#568);
#196=VERTEX_POINT('',#571);
#197=VERTEX_POINT('',#573);
#198=VERTEX_POINT('',#576);
#199=VERTEX_POINT('',#578);
#200=VERTEX_POINT('',#582);
#201=VERTEX_POINT('',#586);
#202=VERTEX_POINT('',#590);
#203=VERTEX_POINT('',#594);
#204=VERTEX_POINT('',#600);
#205=VERTEX_POINT('',#603);
#206=VERTEX_POINT('',#605);
#207=VERTEX_POINT('',#608);
#208=VERTEX_POINT('',#612);
#209=VERTEX_POINT('',#615);
#210=VERTEX_POINT('',#617);
#211=CIRCLE('',#372,17.);
#212=CIRCLE('',#374,19.85);
#213=CIRCLE('',#376,20.0664568416279);
#214=CIRCLE('',#378,22.0223172309919);
#215=CIRCLE('',#380,22.0223172309919);
#216=CIRCLE('',#382,20.0664568416279);
#217=CIRCLE('',#384,19.85);
#218=CIRCLE('',#386,17.);
#219=CIRCLE('',#388,12.);
#220=CIRCLE('',#390,9.78856208386246);
#221=CIRCLE('',#392,6.98856208386246);
#222=CIRCLE('',#394,1.45525331975665);
#223=CIRCLE('',#403,9.);
#224=CIRCLE('',#405,8.);
#225=CIRCLE('',#406,5.);
#226=CIRCLE('',#408,9.);
#227=CIRCLE('',#411,4.188);
#228=CIRCLE('',#413,4.188);
#229=EDGE_LOOP('',(#71));
#230=EDGE_LOOP('',(#72,#73,#74,#75,#76,#77));
#231=EDGE_LOOP('',(#78));
#232=EDGE_LOOP('',(#79));
#233=EDGE_LOOP('',(#80));
#234=EDGE_LOOP('',(#81));
#235=EDGE_LOOP('',(#82));
#236=EDGE_LOOP('',(#83));
#237=EDGE_LOOP('',(#84));
#238=EDGE_LOOP('',(#85));
#239=EDGE_LOOP('',(#86));
#240=EDGE_LOOP('',(#87));
#241=EDGE_LOOP('',(#88));
#242=EDGE_LOOP('',(#89));
#243=EDGE_LOOP('',(#90));
#244=EDGE_LOOP('',(#91));
#245=EDGE_LOOP('',(#92));
#246=EDGE_LOOP('',(#93));
#247=EDGE_LOOP('',(#94));
#248=EDGE_LOOP('',(#95));
#249=EDGE_LOOP('',(#96));
#250=EDGE_LOOP('',(#97));
#251=EDGE_LOOP('',(#98));
#252=EDGE_LOOP('',(#99));
#253=EDGE_LOOP('',(#100));
#254=EDGE_LOOP('',(#101,#102,#103,#104));
#255=EDGE_LOOP('',(#105,#106,#107,#108));
#256=EDGE_LOOP('',(#109,#110,#111,#112));
#257=EDGE_LOOP('',(#113,#114,#115,#116));
#258=EDGE_LOOP('',(#117,#118,#119,#120));
#259=EDGE_LOOP('',(#121,#122,#123,#124));
#260=EDGE_LOOP('',(#125));
#261=EDGE_LOOP('',(#126,#127,#128,#129,#130,#131));
#262=EDGE_LOOP('',(#132));
#263=EDGE_LOOP('',(#133));
#264=EDGE_LOOP('',(#134));
#265=EDGE_LOOP('',(#135));
#266=EDGE_LOOP('',(#136));
#267=EDGE_LOOP('',(#137));
#268=EDGE_LOOP('',(#138));
#269=EDGE_LOOP('',(#139));
#270=EDGE_LOOP('',(#140));
#271=EDGE_LOOP('',(#141));
#272=EDGE_LOOP('',(#142));
#273=FACE_BOUND('',#229,.T.);
#274=FACE_BOUND('',#230,.T.);
#275=FACE_BOUND('',#231,.T.);
#276=FACE_BOUND('',#232,.T.);
#277=FACE_BOUND('',#233,.T.);
#278=FACE_BOUND('',#234,.T.);
#279=FACE_BOUND('',#235,.T.);
#280=FACE_BOUND('',#236,.T.);
#281=FACE_BOUND('',#237,.T.);
#282=FACE_BOUND('',#238,.T.);
#283=FACE_BOUND('',#239,.T.);
#284=FACE_BOUND('',#240,.T.);
#285=FACE_BOUND('',#241,.T.);
#286=FACE_BOUND('',#242,.T.);
#287=FACE_BOUND('',#243,.T.);
#288=FACE_BOUND('',#244,.T.);
#289=FACE_BOUND('',#245,.T.);
#290=FACE_BOUND('',#246,.T.);
#291=FACE_BOUND('',#247,.T.);
#292=FACE_BOUND('',#248,.T.);
#293=FACE_BOUND('',#249,.T.);
#294=FACE_BOUND('',#250,.T.);
#295=FACE_BOUND('',#251,.T.);
#296=FACE_BOUND('',#252,.T.);
#297=FACE_BOUND('',#22,.T.);
#298=FACE_BOUND('',#253,.T.);
#299=FACE_BOUND('',#254,.T.);
#300=FACE_BOUND('',#255,.T.);
#301=FACE_BOUND('',#256,.T.);
#302=FACE_BOUND('',#257,.T.);
#303=FACE_BOUND('',#258,.T.);
#304=FACE_BOUND('',#259,.T.);
#305=FACE_BOUND('',#260,.T.);
#306=FACE_BOUND('',#261,.T.);
#307=FACE_BOUND('',#262,.T.);
#308=FACE_BOUND('',#263,.T.);
#309=FACE_BOUND('',#264,.T.);
#310=FACE_BOUND('',#265,.T.);
#311=FACE_BOUND('',#266,.T.);
#312=FACE_BOUND('',#267,.T.);
#313=FACE_BOUND('',#268,.T.);
#314=FACE_BOUND('',#269,.T.);
#315=FACE_BOUND('',#270,.T.);
#316=FACE_BOUND('',#271,.T.);
#317=FACE_BOUND('',#23,.T.);
#318=FACE_BOUND('',#272,.T.);
#319=PLANE('',#371);
#320=PLANE('',#375);
#321=PLANE('',#383);
#322=PLANE('',#387);
#323=PLANE('',#391);
#324=PLANE('',#396);
#325=PLANE('',#397);
#326=PLANE('',#398);
#327=PLANE('',#399);
#328=PLANE('',#400);
#329=PLANE('',#401);
#330=PLANE('',#402);
#331=PLANE('',#404);
#332=ADVANCED_FACE('',(#273,#274),#319,.F.);
#333=ADVANCED_FACE('',(#275,#276),#28,.F.);
#334=ADVANCED_FACE('',(#277,#278),#320,.F.);
#335=ADVANCED_FACE('',(#279,#280),#25,.F.);
#336=ADVANCED_FACE('',(#281,#282),#26,.T.);
#337=ADVANCED_FACE('',(#283,#284),#27,.F.);
#338=ADVANCED_FACE('',(#285,#286),#321,.F.);
#339=ADVANCED_FACE('',(#287,#288),#29,.F.);
#340=ADVANCED_FACE('',(#289,#290),#322,.F.);
#341=ADVANCED_FACE('',(#291,#292),#30,.T.);
#342=ADVANCED_FACE('',(#293,#294),#323,.F.);
#343=ADVANCED_FACE('',(#295,#296),#24,.T.);
#344=ADVANCED_FACE('',(#297,#298),#31,.F.);
#345=ADVANCED_FACE('',(#299),#324,.T.);
#346=ADVANCED_FACE('',(#300),#325,.T.);
#347=ADVANCED_FACE('',(#301),#326,.T.);
#348=ADVANCED_FACE('',(#302),#327,.T.);
#349=ADVANCED_FACE('',(#303),#328,.T.);
#350=ADVANCED_FACE('',(#304),#329,.T.);
#351=ADVANCED_FACE('',(#305,#306),#330,.F.);
#352=ADVANCED_FACE('',(#307,#308),#331,.F.);
#353=ADVANCED_FACE('',(#309,#310),#32,.T.);
#354=ADVANCED_FACE('',(#311,#312),#20,.T.);
#355=ADVANCED_FACE('',(#313,#314),#33,.F.);
#356=ADVANCED_FACE('',(#315,#316),#21,.F.);
#357=ADVANCED_FACE('',(#317,#318),#34,.F.);
#358=CLOSED_SHELL('',(#332,#333,#334,#335,#336,#337,#338,#339,#340,#341,
#342,#343,#344,#345,#346,#347,#348,#349,#350,#351,#352,#353,#354,#355,#356,
#357));
#359=STYLED_ITEM('',(#360),#367);
#360=PRESENTATION_STYLE_ASSIGNMENT((#361));
#361=SURFACE_STYLE_USAGE(.BOTH.,#362);
#362=SURFACE_SIDE_STYLE('',(#363));
#363=SURFACE_STYLE_FILL_AREA(#364);
#364=FILL_AREA_STYLE('',(#365));
#365=FILL_AREA_STYLE_COLOUR('',#366);
#366=COLOUR_RGB('',0.689999997615814,0.689999997615814,0.689999997615814);
#367=MANIFOLD_SOLID_BREP('CRPA63-2ZR',#358);
#368=SHAPE_DEFINITION_REPRESENTATION(#624,#369);
#369=SHAPE_REPRESENTATION('CRPA63-2ZR',(#370),#619);
#370=AXIS2_PLACEMENT_3D('',#523,#415,#416);
#371=AXIS2_PLACEMENT_3D('',#524,#417,#418);
#372=AXIS2_PLACEMENT_3D('',#525,#419,#420);
#373=AXIS2_PLACEMENT_3D('',#539,#427,#428);
#374=AXIS2_PLACEMENT_3D('',#540,#429,#430);
#375=AXIS2_PLACEMENT_3D('',#542,#431,#432);
#376=AXIS2_PLACEMENT_3D('',#543,#433,#434);
#377=AXIS2_PLACEMENT_3D('',#545,#435,#436);
#378=AXIS2_PLACEMENT_3D('',#546,#437,#438);
#379=AXIS2_PLACEMENT_3D('',#548,#439,#440);
#380=AXIS2_PLACEMENT_3D('',#549,#441,#442);
#381=AXIS2_PLACEMENT_3D('',#551,#443,#444);
#382=AXIS2_PLACEMENT_3D('',#552,#445,#446);
#383=AXIS2_PLACEMENT_3D('',#554,#447,#448);
#384=AXIS2_PLACEMENT_3D('',#555,#449,#450);
#385=AXIS2_PLACEMENT_3D('',#557,#451,#452);
#386=AXIS2_PLACEMENT_3D('',#558,#453,#454);
#387=AXIS2_PLACEMENT_3D('',#560,#455,#456);
#388=AXIS2_PLACEMENT_3D('',#561,#457,#458);
#389=AXIS2_PLACEMENT_3D('',#563,#459,#460);
#390=AXIS2_PLACEMENT_3D('',#564,#461,#462);
#391=AXIS2_PLACEMENT_3D('',#566,#463,#464);
#392=AXIS2_PLACEMENT_3D('',#567,#465,#466);
#393=AXIS2_PLACEMENT_3D('',#569,#467,#468);
#394=AXIS2_PLACEMENT_3D('',#570,#469,#470);
#395=AXIS2_PLACEMENT_3D('',#572,#471,#472);
#396=AXIS2_PLACEMENT_3D('',#574,#473,#474);
#397=AXIS2_PLACEMENT_3D('',#580,#478,#479);
#398=AXIS2_PLACEMENT_3D('',#584,#482,#483);
#399=AXIS2_PLACEMENT_3D('',#588,#486,#487);
#400=AXIS2_PLACEMENT_3D('',#592,#490,#491);
#401=AXIS2_PLACEMENT_3D('',#596,#494,#495);
#402=AXIS2_PLACEMENT_3D('',#598,#497,#498);
#403=AXIS2_PLACEMENT_3D('',#599,#499,#500);
#404=AXIS2_PLACEMENT_3D('',#601,#501,#502);
#405=AXIS2_PLACEMENT_3D('',#602,#503,#504);
#406=AXIS2_PLACEMENT_3D('',#604,#505,#506);
#407=AXIS2_PLACEMENT_3D('',#606,#507,#508);
#408=AXIS2_PLACEMENT_3D('',#607,#509,#510);
#409=AXIS2_PLACEMENT_3D('',#609,#511,#512);
#410=AXIS2_PLACEMENT_3D('',#610,#513,#514);
#411=AXIS2_PLACEMENT_3D('',#611,#515,#516);
#412=AXIS2_PLACEMENT_3D('',#613,#517,#518);
#413=AXIS2_PLACEMENT_3D('',#614,#519,#520);
#414=AXIS2_PLACEMENT_3D('',#616,#521,#522);
#415=DIRECTION('',(0.,0.,1.));
#416=DIRECTION('',(1.,0.,0.));
#417=DIRECTION('',(1.,8.48573058262645E-16,0.));
#418=DIRECTION('',(-8.48573058262645E-16,1.,0.));
#419=DIRECTION('',(1.,8.48573058262645E-16,0.));
#420=DIRECTION('',(-8.48573058262645E-16,1.,0.));
#421=DIRECTION('',(0.,0.,1.));
#422=DIRECTION('',(0.,-0.866025403784439,0.5));
#423=DIRECTION('',(0.,-0.866025403784438,-0.5));
#424=DIRECTION('',(0.,0.,-1.));
#425=DIRECTION('',(0.,0.866025403784439,-0.5));
#426=DIRECTION('',(0.,0.866025403784438,0.5));
#427=DIRECTION('',(-1.,-8.48573058262645E-16,0.));
#428=DIRECTION('',(8.48573058262645E-16,-1.,0.));
#429=DIRECTION('',(1.,8.48573058262645E-16,0.));
#430=DIRECTION('',(-8.48573058262645E-16,1.,0.));
#431=DIRECTION('',(1.,8.48573058262645E-16,0.));
#432=DIRECTION('',(-8.48573058262645E-16,1.,0.));
#433=DIRECTION('',(1.,8.48573058262645E-16,0.));
#434=DIRECTION('',(-8.48573058262645E-16,1.,0.));
#435=DIRECTION('',(1.,8.48573058262645E-16,0.));
#436=DIRECTION('',(-8.48573058262645E-16,1.,0.));
#437=DIRECTION('',(1.,8.48573058262645E-16,0.));
#438=DIRECTION('',(-8.48573058262645E-16,1.,0.));
#439=DIRECTION('',(1.,8.48573058262645E-16,0.));
#440=DIRECTION('',(-8.48573058262645E-16,1.,0.));
#441=DIRECTION('',(1.,8.48573058262645E-16,0.));
#442=DIRECTION('',(-8.48573058262645E-16,1.,0.));
#443=DIRECTION('',(1.,8.48573058262645E-16,0.));
#444=DIRECTION('',(-8.48573058262645E-16,1.,0.));
#445=DIRECTION('',(1.,8.48573058262645E-16,0.));
#446=DIRECTION('',(-8.48573058262645E-16,1.,0.));
#447=DIRECTION('',(-1.,-8.48573058262645E-16,0.));
#448=DIRECTION('',(8.48573058262645E-16,-1.,0.));
#449=DIRECTION('',(1.,8.48573058262645E-16,0.));
#450=DIRECTION('',(-8.48573058262645E-16,1.,0.));
#451=DIRECTION('',(1.,8.48573058262645E-16,0.));
#452=DIRECTION('',(-8.48573058262645E-16,1.,0.));
#453=DIRECTION('',(1.,8.48573058262645E-16,0.));
#454=DIRECTION('',(-8.48573058262645E-16,1.,0.));
#455=DIRECTION('',(-1.,-8.48573058262645E-16,0.));
#456=DIRECTION('',(8.48573058262645E-16,-1.,0.));
#457=DIRECTION('',(1.,8.48573058262645E-16,0.));
#458=DIRECTION('',(-8.48573058262645E-16,1.,0.));
#459=DIRECTION('',(-1.,-8.48573058262645E-16,0.));
#460=DIRECTION('',(8.48573058262645E-16,-1.,0.));
#461=DIRECTION('',(1.,8.48573058262645E-16,0.));
#462=DIRECTION('',(-8.48573058262645E-16,1.,0.));
#463=DIRECTION('',(-1.,-8.48573058262645E-16,0.));
#464=DIRECTION('',(8.48573058262645E-16,-1.,0.));
#465=DIRECTION('',(1.,8.48573058262645E-16,0.));
#466=DIRECTION('',(-8.48573058262645E-16,1.,0.));
#467=DIRECTION('',(1.,8.48573058262645E-16,0.));
#468=DIRECTION('',(-8.48573058262645E-16,1.,0.));
#469=DIRECTION('',(1.,8.48573058262645E-16,0.));
#470=DIRECTION('',(-8.48573058262645E-16,1.,0.));
#471=DIRECTION('',(1.,8.48573058262645E-16,0.));
#472=DIRECTION('',(-8.48573058262645E-16,1.,0.));
#473=DIRECTION('',(0.,0.5,0.866025403784439));
#474=DIRECTION('',(0.,-0.866025403784439,0.5));
#475=DIRECTION('',(1.,0.,0.));
#476=DIRECTION('',(0.,-0.866025403784439,0.5));
#477=DIRECTION('',(1.,0.,0.));
#478=DIRECTION('',(0.,-0.5,0.866025403784439));
#479=DIRECTION('',(0.,-0.866025403784439,-0.5));
#480=DIRECTION('',(0.,-0.866025403784438,-0.5));
#481=DIRECTION('',(1.,0.,0.));
#482=DIRECTION('',(0.,-1.,0.));
#483=DIRECTION('',(0.,0.,-1.));
#484=DIRECTION('',(0.,0.,-1.));
#485=DIRECTION('',(1.,0.,0.));
#486=DIRECTION('',(0.,-0.5,-0.866025403784439));
#487=DIRECTION('',(0.,0.866025403784439,-0.5));
#488=DIRECTION('',(0.,0.866025403784439,-0.5));
#489=DIRECTION('',(1.,0.,0.));
#490=DIRECTION('',(0.,0.5,-0.866025403784439));
#491=DIRECTION('',(0.,0.866025403784439,0.5));
#492=DIRECTION('',(0.,0.866025403784438,0.5));
#493=DIRECTION('',(1.,0.,0.));
#494=DIRECTION('',(0.,1.,0.));
#495=DIRECTION('',(0.,0.,1.));
#496=DIRECTION('',(0.,0.,1.));
#497=DIRECTION('',(1.,0.,0.));
#498=DIRECTION('',(0.,0.,-1.));
#499=DIRECTION('',(1.,0.,0.));
#500=DIRECTION('',(0.,0.,-1.));
#501=DIRECTION('',(1.,0.,0.));
#502=DIRECTION('',(0.,0.,-1.));
#503=DIRECTION('',(1.,0.,0.));
#504=DIRECTION('',(0.,0.,-1.));
#505=DIRECTION('',(1.,0.,0.));
#506=DIRECTION('',(0.,0.,-1.));
#507=DIRECTION('',(1.,0.,0.));
#508=DIRECTION('',(0.,0.,-1.));
#509=DIRECTION('',(1.,0.,0.));
#510=DIRECTION('',(0.,0.,-1.));
#511=DIRECTION('',(1.,0.,0.));
#512=DIRECTION('',(0.,0.,-1.));
#513=DIRECTION('',(-1.,0.,0.));
#514=DIRECTION('',(0.,0.,1.));
#515=DIRECTION('',(1.,0.,0.));
#516=DIRECTION('',(0.,0.,-1.));
#517=DIRECTION('',(1.,0.,0.));
#518=DIRECTION('',(0.,0.,-1.));
#519=DIRECTION('',(1.,0.,0.));
#520=DIRECTION('',(0.,0.,-1.));
#521=DIRECTION('',(-1.,0.,0.));
#522=DIRECTION('',(0.,0.,1.));
#523=CARTESIAN_POINT('',(0.,0.,0.));
#524=CARTESIAN_POINT('',(8.79999999999998,-1.89040252899656E-29,0.));
#525=CARTESIAN_POINT('',(8.79999999999995,-4.00593428432545E-29,0.));
#526=CARTESIAN_POINT('',(8.79999999999994,17.,0.));
#527=CARTESIAN_POINT('',(8.8,12.5,-7.21687836487032));
#528=CARTESIAN_POINT('',(8.8,12.5,-7.21687836487032));
#529=CARTESIAN_POINT('',(8.79999999999997,12.5,7.21687836487032));
#530=CARTESIAN_POINT('',(8.8,12.5,7.21687836487032));
#531=CARTESIAN_POINT('',(8.8,-1.77635683940025E-15,14.4337567297406));
#532=CARTESIAN_POINT('',(8.8,-1.77635683940025E-15,14.4337567297406));
#533=CARTESIAN_POINT('',(8.8,-12.5,7.21687836487032));
#534=CARTESIAN_POINT('',(8.8,-12.5,7.21687836487032));
#535=CARTESIAN_POINT('',(8.8,-12.5,-7.21687836487032));
#536=CARTESIAN_POINT('',(8.8,-12.5,-7.21687836487032));
#537=CARTESIAN_POINT('',(8.8,3.46944695195361E-15,-14.4337567297406));
#538=CARTESIAN_POINT('',(8.8,1.77635683940025E-15,-14.4337567297406));
#539=CARTESIAN_POINT('',(8.79999999999995,-4.00593428432545E-29,0.));
#540=CARTESIAN_POINT('',(8.29999999999996,-4.2428652913136E-16,0.));
#541=CARTESIAN_POINT('',(8.29999999999994,19.85,0.));
#542=CARTESIAN_POINT('',(8.29999999999996,19.85,0.));
#543=CARTESIAN_POINT('',(8.29999999999999,-4.24286529131336E-16,0.));
#544=CARTESIAN_POINT('',(8.29999999999997,20.0664568416279,0.));
#545=CARTESIAN_POINT('',(8.50029047249878,0.,0.));
#546=CARTESIAN_POINT('',(10.5,1.44257419904651E-15,0.));
#547=CARTESIAN_POINT('',(10.5,22.0223172309919,0.));
#548=CARTESIAN_POINT('',(17.05,6.93889390390723E-15,0.));
#549=CARTESIAN_POINT('',(23.6,1.25588812622872E-14,0.));
#550=CARTESIAN_POINT('',(23.6,22.0223172309919,0.));
#551=CARTESIAN_POINT('',(25.5997095275013,1.38777878078145E-14,0.));
#552=CARTESIAN_POINT('',(25.8,1.4425741990465E-14,0.));
#553=CARTESIAN_POINT('',(25.8,20.0664568416279,0.));
#554=CARTESIAN_POINT('',(25.8,20.0664568416279,0.));
#555=CARTESIAN_POINT('',(25.8,1.4425741990465E-14,0.));
#556=CARTESIAN_POINT('',(25.8,19.85,0.));
#557=CARTESIAN_POINT('',(25.8,1.4425741990465E-14,0.));
#558=CARTESIAN_POINT('',(25.2999999999999,1.40014554613336E-14,0.));
#559=CARTESIAN_POINT('',(25.2999999999999,17.,0.));
#560=CARTESIAN_POINT('',(25.2999999999999,17.,0.));
#561=CARTESIAN_POINT('',(25.2999999999999,1.40014554613336E-14,0.));
#562=CARTESIAN_POINT('',(25.2999999999999,12.,0.));
#563=CARTESIAN_POINT('',(25.2999999999999,1.40014554613336E-14,0.));
#564=CARTESIAN_POINT('',(25.8,1.4425741990465E-14,0.));
#565=CARTESIAN_POINT('',(25.8,9.78856208386247,0.));
#566=CARTESIAN_POINT('',(25.8,9.78856208386247,0.));
#567=CARTESIAN_POINT('',(25.8,1.4425741990465E-14,0.));
#568=CARTESIAN_POINT('',(25.8,6.98856208386247,0.));
#569=CARTESIAN_POINT('',(-14.599999999996,4.39752401160121E-13,0.));
#570=CARTESIAN_POINT('',(26.3741654921163,1.4912963358059E-14,0.));
#571=CARTESIAN_POINT('',(26.3741654921163,1.45525331975667,0.));
#572=CARTESIAN_POINT('',(26.3741654921163,1.4912963358059E-14,0.));
#573=CARTESIAN_POINT('',(25.5339745962155,1.40946282423116E-14,0.));
#574=CARTESIAN_POINT('',(6.,12.5,7.21687836487032));
#575=CARTESIAN_POINT('',(6.,12.5,7.21687836487032));
#576=CARTESIAN_POINT('',(6.,12.5,7.21687836487032));
#577=CARTESIAN_POINT('',(6.,12.5,7.21687836487032));
#578=CARTESIAN_POINT('',(6.,-1.77635683940025E-15,14.4337567297406));
#579=CARTESIAN_POINT('',(6.,-1.77635683940025E-15,14.4337567297406));
#580=CARTESIAN_POINT('',(6.,-1.77635683940025E-15,14.4337567297406));
#581=CARTESIAN_POINT('',(6.,-1.77635683940025E-15,14.4337567297406));
#582=CARTESIAN_POINT('',(6.,-12.5,7.21687836487032));
#583=CARTESIAN_POINT('',(6.,-12.5,7.21687836487032));
#584=CARTESIAN_POINT('',(6.,-12.5,7.21687836487032));
#585=CARTESIAN_POINT('',(6.,-12.5,7.21687836487032));
#586=CARTESIAN_POINT('',(6.,-12.5,-7.21687836487032));
#587=CARTESIAN_POINT('',(6.,-12.5,-7.21687836487032));
#588=CARTESIAN_POINT('',(6.,-12.5,-7.21687836487032));
#589=CARTESIAN_POINT('',(6.,-12.5,-7.21687836487032));
#590=CARTESIAN_POINT('',(6.,3.46944695195361E-15,-14.4337567297406));
#591=CARTESIAN_POINT('',(6.,3.46944695195361E-15,-14.4337567297406));
#592=CARTESIAN_POINT('',(6.,1.77635683940025E-15,-14.4337567297406));
#593=CARTESIAN_POINT('',(6.,1.77635683940025E-15,-14.4337567297406));
#594=CARTESIAN_POINT('',(6.,12.5,-7.21687836487032));
#595=CARTESIAN_POINT('',(6.,12.5,-7.21687836487032));
#596=CARTESIAN_POINT('',(6.,12.5,-7.21687836487032));
#597=CARTESIAN_POINT('',(6.,12.5,-7.21687836487032));
#598=CARTESIAN_POINT('',(6.,0.,0.));
#599=CARTESIAN_POINT('',(6.,0.,0.));
#600=CARTESIAN_POINT('',(6.,0.,-9.));
#601=CARTESIAN_POINT('',(0.,0.,0.));
#602=CARTESIAN_POINT('',(0.,0.,0.));
#603=CARTESIAN_POINT('',(0.,0.,-8.));
#604=CARTESIAN_POINT('',(0.,0.,0.));
#605=CARTESIAN_POINT('',(0.,0.,-5.));
#606=CARTESIAN_POINT('',(0.,0.,0.));
#607=CARTESIAN_POINT('',(1.,0.,0.));
#608=CARTESIAN_POINT('',(1.,0.,-9.));
#609=CARTESIAN_POINT('',(8.8,0.,0.));
#610=CARTESIAN_POINT('',(0.,0.,0.));
#611=CARTESIAN_POINT('',(0.812,0.,0.));
#612=CARTESIAN_POINT('',(0.812,0.,-4.188));
#613=CARTESIAN_POINT('',(23.5164042724874,0.,0.));
#614=CARTESIAN_POINT('',(21.,0.,0.));
#615=CARTESIAN_POINT('',(21.,0.,-4.188));
#616=CARTESIAN_POINT('',(21.,0.,0.));
#617=CARTESIAN_POINT('',(23.5164042724874,0.,0.));
#618=MECHANICAL_DESIGN_GEOMETRIC_PRESENTATION_REPRESENTATION('',(#359),
#619);
#619=(
GEOMETRIC_REPRESENTATION_CONTEXT(3)
GLOBAL_UNCERTAINTY_ASSIGNED_CONTEXT((#620))
GLOBAL_UNIT_ASSIGNED_CONTEXT((#623,#622,#621))
REPRESENTATION_CONTEXT('CRPA63-2ZR','TOP_LEVEL_ASSEMBLY_PART')
);
#620=UNCERTAINTY_MEASURE_WITH_UNIT(LENGTH_MEASURE(0.005),#623,
'DISTANCE_ACCURACY_VALUE','Maximum Tolerance applied to model');
#621=(
NAMED_UNIT(*)
SI_UNIT($,.STERADIAN.)
SOLID_ANGLE_UNIT()
);
#622=(
NAMED_UNIT(*)
PLANE_ANGLE_UNIT()
SI_UNIT($,.RADIAN.)
);
#623=(
LENGTH_UNIT()
NAMED_UNIT(*)
SI_UNIT(.MILLI.,.METRE.)
);
#624=PRODUCT_DEFINITION_SHAPE('','',#625);
#625=PRODUCT_DEFINITION('','',#627,#626);
#626=PRODUCT_DEFINITION_CONTEXT('',#633,'design');
#627=PRODUCT_DEFINITION_FORMATION_WITH_SPECIFIED_SOURCE('','',#629,
 .NOT_KNOWN.);
#628=PRODUCT_RELATED_PRODUCT_CATEGORY('','',(#629));
#629=PRODUCT('CRPA63-2ZR','CRPA63-2ZR','CRPA63-2ZR',(#631));
#630=PRODUCT_CATEGORY('','');
#631=PRODUCT_CONTEXT('',#633,'mechanical');
#632=APPLICATION_PROTOCOL_DEFINITION('international standard',
'automotive_design',2010,#633);
#633=APPLICATION_CONTEXT(
'core data for automotive mechanical design processes');
ENDSEC;
END-ISO-10303-21;
