ISO-10303-21;
HEADER;
/* Generated by software containing ST-Developer
 * from STEP Tools, Inc. (www.steptools.com) 
 */

FILE_DESCRIPTION(
/* description */ ('U-F\X\FChrungsprofil'),
/* implementation_level */ '2;1');

FILE_NAME(
/* name */ 
'C:\\VAULT_WORKSPACE\\Projekte\\Werksnorm\\Profile\\UP xxx.0730\\UP160
-0730.stp',
/* time_stamp */ '2021-02-08T14:40:06+01:00',
/* author */ ('kstaebler'),
/* organization */ (''),
/* preprocessor_version */ 'ST-DEVELOPER v18.1',
/* originating_system */ 'Autodesk Inventor 2020',
/* authorisation */ '');

FILE_SCHEMA (('AUTOMOTIVE_DESIGN { 1 0 10303 214 3 1 1 }'));
ENDSEC;

DATA;
#10=MECHANICAL_DESIGN_GEOMETRIC_PRESENTATION_REPRESENTATION('',(#13),#581);
#11=SHAPE_REPRESENTATION_RELATIONSHIP('SRR','None',#588,#12);
#12=ADVANCED_BREP_SHAPE_REPRESENTATION('',(#14),#580);
#13=STYLED_ITEM('',(#597),#14);
#14=MANIFOLD_SOLID_BREP('Volumenk\X\F6rper1',#339);
#15=PLANE('',#362);
#16=PLANE('',#363);
#17=PLANE('',#364);
#18=PLANE('',#366);
#19=PLANE('',#368);
#20=PLANE('',#369);
#21=PLANE('',#370);
#22=PLANE('',#375);
#23=PLANE('',#376);
#24=PLANE('',#377);
#25=PLANE('',#379);
#26=PLANE('',#381);
#27=PLANE('',#382);
#28=PLANE('',#383);
#29=PLANE('',#385);
#30=PLANE('',#386);
#31=PLANE('',#387);
#32=PLANE('',#388);
#33=FACE_OUTER_BOUND('',#55,.T.);
#34=FACE_OUTER_BOUND('',#56,.T.);
#35=FACE_OUTER_BOUND('',#57,.T.);
#36=FACE_OUTER_BOUND('',#58,.T.);
#37=FACE_OUTER_BOUND('',#59,.T.);
#38=FACE_OUTER_BOUND('',#60,.T.);
#39=FACE_OUTER_BOUND('',#61,.T.);
#40=FACE_OUTER_BOUND('',#62,.T.);
#41=FACE_OUTER_BOUND('',#63,.T.);
#42=FACE_OUTER_BOUND('',#64,.T.);
#43=FACE_OUTER_BOUND('',#65,.T.);
#44=FACE_OUTER_BOUND('',#66,.T.);
#45=FACE_OUTER_BOUND('',#67,.T.);
#46=FACE_OUTER_BOUND('',#68,.T.);
#47=FACE_OUTER_BOUND('',#69,.T.);
#48=FACE_OUTER_BOUND('',#70,.T.);
#49=FACE_OUTER_BOUND('',#71,.T.);
#50=FACE_OUTER_BOUND('',#72,.T.);
#51=FACE_OUTER_BOUND('',#73,.T.);
#52=FACE_OUTER_BOUND('',#74,.T.);
#53=FACE_OUTER_BOUND('',#75,.T.);
#54=FACE_OUTER_BOUND('',#76,.T.);
#55=EDGE_LOOP('',(#225,#226,#227,#228));
#56=EDGE_LOOP('',(#229,#230,#231,#232));
#57=EDGE_LOOP('',(#233,#234,#235,#236));
#58=EDGE_LOOP('',(#237,#238,#239,#240));
#59=EDGE_LOOP('',(#241,#242,#243,#244));
#60=EDGE_LOOP('',(#245,#246,#247,#248));
#61=EDGE_LOOP('',(#249,#250,#251,#252));
#62=EDGE_LOOP('',(#253,#254,#255,#256));
#63=EDGE_LOOP('',(#257,#258,#259,#260));
#64=EDGE_LOOP('',(#261,#262,#263,#264));
#65=EDGE_LOOP('',(#265,#266,#267,#268));
#66=EDGE_LOOP('',(#269,#270,#271,#272));
#67=EDGE_LOOP('',(#273,#274,#275,#276));
#68=EDGE_LOOP('',(#277,#278,#279,#280));
#69=EDGE_LOOP('',(#281,#282,#283,#284));
#70=EDGE_LOOP('',(#285,#286,#287,#288));
#71=EDGE_LOOP('',(#289,#290,#291,#292));
#72=EDGE_LOOP('',(#293,#294,#295,#296));
#73=EDGE_LOOP('',(#297,#298,#299,#300));
#74=EDGE_LOOP('',(#301,#302,#303,#304));
#75=EDGE_LOOP('',(#305,#306,#307,#308));
#76=EDGE_LOOP('',(#309,#310,#311,#312));
#77=CIRCLE('',#360,16.);
#78=CIRCLE('',#361,16.);
#79=CIRCLE('',#365,8.);
#80=CIRCLE('',#367,8.);
#81=CIRCLE('',#373,16.);
#82=CIRCLE('',#374,16.);
#83=CIRCLE('',#378,8.);
#84=CIRCLE('',#380,8.);
#85=LINE('',#491,#121);
#86=LINE('',#495,#122);
#87=LINE('',#499,#123);
#88=LINE('',#501,#124);
#89=LINE('',#503,#125);
#90=LINE('',#504,#126);
#91=LINE('',#507,#127);
#92=LINE('',#509,#128);
#93=LINE('',#510,#129);
#94=LINE('',#512,#130);
#95=LINE('',#515,#131);
#96=LINE('',#518,#132);
#97=LINE('',#522,#133);
#98=LINE('',#523,#134);
#99=LINE('',#525,#135);
#100=LINE('',#528,#136);
#101=LINE('',#532,#137);
#102=LINE('',#536,#138);
#103=LINE('',#540,#139);
#104=LINE('',#542,#140);
#105=LINE('',#544,#141);
#106=LINE('',#545,#142);
#107=LINE('',#548,#143);
#108=LINE('',#550,#144);
#109=LINE('',#551,#145);
#110=LINE('',#553,#146);
#111=LINE('',#556,#147);
#112=LINE('',#559,#148);
#113=LINE('',#563,#149);
#114=LINE('',#564,#150);
#115=LINE('',#566,#151);
#116=LINE('',#569,#152);
#117=LINE('',#571,#153);
#118=LINE('',#572,#154);
#119=LINE('',#574,#155);
#120=LINE('',#576,#156);
#121=VECTOR('',#393,10.);
#122=VECTOR('',#396,10.);
#123=VECTOR('',#401,10.);
#124=VECTOR('',#402,11.52);
#125=VECTOR('',#403,10.);
#126=VECTOR('',#404,11.52);
#127=VECTOR('',#407,10.);
#128=VECTOR('',#408,11.52);
#129=VECTOR('',#409,10.);
#130=VECTOR('',#412,10.);
#131=VECTOR('',#415,10.);
#132=VECTOR('',#418,10.);
#133=VECTOR('',#423,10.);
#134=VECTOR('',#424,10.);
#135=VECTOR('',#427,10.);
#136=VECTOR('',#432,10.);
#137=VECTOR('',#435,10.);
#138=VECTOR('',#438,10.);
#139=VECTOR('',#443,10.);
#140=VECTOR('',#444,11.52);
#141=VECTOR('',#445,10.);
#142=VECTOR('',#446,11.52);
#143=VECTOR('',#449,10.);
#144=VECTOR('',#450,11.52);
#145=VECTOR('',#451,10.);
#146=VECTOR('',#454,10.);
#147=VECTOR('',#457,10.);
#148=VECTOR('',#460,10.);
#149=VECTOR('',#465,10.);
#150=VECTOR('',#466,10.);
#151=VECTOR('',#469,10.);
#152=VECTOR('',#474,10.);
#153=VECTOR('',#477,10.);
#154=VECTOR('',#478,10.);
#155=VECTOR('',#481,10.);
#156=VECTOR('',#484,10.);
#157=VERTEX_POINT('',#489);
#158=VERTEX_POINT('',#490);
#159=VERTEX_POINT('',#492);
#160=VERTEX_POINT('',#494);
#161=VERTEX_POINT('',#498);
#162=VERTEX_POINT('',#500);
#163=VERTEX_POINT('',#502);
#164=VERTEX_POINT('',#506);
#165=VERTEX_POINT('',#508);
#166=VERTEX_POINT('',#513);
#167=VERTEX_POINT('',#517);
#168=VERTEX_POINT('',#521);
#169=VERTEX_POINT('',#530);
#170=VERTEX_POINT('',#531);
#171=VERTEX_POINT('',#533);
#172=VERTEX_POINT('',#535);
#173=VERTEX_POINT('',#539);
#174=VERTEX_POINT('',#541);
#175=VERTEX_POINT('',#543);
#176=VERTEX_POINT('',#547);
#177=VERTEX_POINT('',#549);
#178=VERTEX_POINT('',#554);
#179=VERTEX_POINT('',#558);
#180=VERTEX_POINT('',#562);
#181=EDGE_CURVE('',#157,#158,#85,.T.);
#182=EDGE_CURVE('',#159,#157,#77,.T.);
#183=EDGE_CURVE('',#160,#159,#86,.T.);
#184=EDGE_CURVE('',#158,#160,#78,.T.);
#185=EDGE_CURVE('',#158,#161,#87,.T.);
#186=EDGE_CURVE('',#162,#161,#88,.T.);
#187=EDGE_CURVE('',#162,#163,#89,.T.);
#188=EDGE_CURVE('',#163,#158,#90,.T.);
#189=EDGE_CURVE('',#161,#164,#91,.T.);
#190=EDGE_CURVE('',#165,#164,#92,.T.);
#191=EDGE_CURVE('',#165,#162,#93,.T.);
#192=EDGE_CURVE('',#164,#157,#94,.T.);
#193=EDGE_CURVE('',#164,#166,#79,.T.);
#194=EDGE_CURVE('',#159,#166,#95,.T.);
#195=EDGE_CURVE('',#167,#160,#96,.T.);
#196=EDGE_CURVE('',#161,#167,#80,.T.);
#197=EDGE_CURVE('',#157,#168,#97,.T.);
#198=EDGE_CURVE('',#165,#168,#98,.T.);
#199=EDGE_CURVE('',#168,#163,#99,.T.);
#200=EDGE_CURVE('',#166,#167,#100,.T.);
#201=EDGE_CURVE('',#169,#170,#101,.T.);
#202=EDGE_CURVE('',#171,#169,#81,.T.);
#203=EDGE_CURVE('',#172,#171,#102,.T.);
#204=EDGE_CURVE('',#170,#172,#82,.T.);
#205=EDGE_CURVE('',#170,#173,#103,.T.);
#206=EDGE_CURVE('',#174,#173,#104,.T.);
#207=EDGE_CURVE('',#174,#175,#105,.T.);
#208=EDGE_CURVE('',#175,#170,#106,.T.);
#209=EDGE_CURVE('',#173,#176,#107,.T.);
#210=EDGE_CURVE('',#177,#176,#108,.T.);
#211=EDGE_CURVE('',#177,#174,#109,.T.);
#212=EDGE_CURVE('',#176,#169,#110,.T.);
#213=EDGE_CURVE('',#176,#178,#83,.T.);
#214=EDGE_CURVE('',#171,#178,#111,.T.);
#215=EDGE_CURVE('',#179,#172,#112,.T.);
#216=EDGE_CURVE('',#173,#179,#84,.T.);
#217=EDGE_CURVE('',#169,#180,#113,.T.);
#218=EDGE_CURVE('',#177,#180,#114,.T.);
#219=EDGE_CURVE('',#180,#175,#115,.T.);
#220=EDGE_CURVE('',#178,#179,#116,.T.);
#221=EDGE_CURVE('',#172,#159,#117,.T.);
#222=EDGE_CURVE('',#166,#179,#118,.T.);
#223=EDGE_CURVE('',#160,#171,#119,.T.);
#224=EDGE_CURVE('',#178,#167,#120,.T.);
#225=ORIENTED_EDGE('',*,*,#181,.F.);
#226=ORIENTED_EDGE('',*,*,#182,.F.);
#227=ORIENTED_EDGE('',*,*,#183,.F.);
#228=ORIENTED_EDGE('',*,*,#184,.F.);
#229=ORIENTED_EDGE('',*,*,#185,.T.);
#230=ORIENTED_EDGE('',*,*,#186,.F.);
#231=ORIENTED_EDGE('',*,*,#187,.T.);
#232=ORIENTED_EDGE('',*,*,#188,.T.);
#233=ORIENTED_EDGE('',*,*,#189,.T.);
#234=ORIENTED_EDGE('',*,*,#190,.F.);
#235=ORIENTED_EDGE('',*,*,#191,.T.);
#236=ORIENTED_EDGE('',*,*,#186,.T.);
#237=ORIENTED_EDGE('',*,*,#192,.F.);
#238=ORIENTED_EDGE('',*,*,#193,.T.);
#239=ORIENTED_EDGE('',*,*,#194,.F.);
#240=ORIENTED_EDGE('',*,*,#182,.T.);
#241=ORIENTED_EDGE('',*,*,#185,.F.);
#242=ORIENTED_EDGE('',*,*,#184,.T.);
#243=ORIENTED_EDGE('',*,*,#195,.F.);
#244=ORIENTED_EDGE('',*,*,#196,.F.);
#245=ORIENTED_EDGE('',*,*,#192,.T.);
#246=ORIENTED_EDGE('',*,*,#197,.T.);
#247=ORIENTED_EDGE('',*,*,#198,.F.);
#248=ORIENTED_EDGE('',*,*,#190,.T.);
#249=ORIENTED_EDGE('',*,*,#199,.T.);
#250=ORIENTED_EDGE('',*,*,#187,.F.);
#251=ORIENTED_EDGE('',*,*,#191,.F.);
#252=ORIENTED_EDGE('',*,*,#198,.T.);
#253=ORIENTED_EDGE('',*,*,#181,.T.);
#254=ORIENTED_EDGE('',*,*,#188,.F.);
#255=ORIENTED_EDGE('',*,*,#199,.F.);
#256=ORIENTED_EDGE('',*,*,#197,.F.);
#257=ORIENTED_EDGE('',*,*,#189,.F.);
#258=ORIENTED_EDGE('',*,*,#196,.T.);
#259=ORIENTED_EDGE('',*,*,#200,.F.);
#260=ORIENTED_EDGE('',*,*,#193,.F.);
#261=ORIENTED_EDGE('',*,*,#201,.F.);
#262=ORIENTED_EDGE('',*,*,#202,.F.);
#263=ORIENTED_EDGE('',*,*,#203,.F.);
#264=ORIENTED_EDGE('',*,*,#204,.F.);
#265=ORIENTED_EDGE('',*,*,#205,.T.);
#266=ORIENTED_EDGE('',*,*,#206,.F.);
#267=ORIENTED_EDGE('',*,*,#207,.T.);
#268=ORIENTED_EDGE('',*,*,#208,.T.);
#269=ORIENTED_EDGE('',*,*,#209,.T.);
#270=ORIENTED_EDGE('',*,*,#210,.F.);
#271=ORIENTED_EDGE('',*,*,#211,.T.);
#272=ORIENTED_EDGE('',*,*,#206,.T.);
#273=ORIENTED_EDGE('',*,*,#212,.F.);
#274=ORIENTED_EDGE('',*,*,#213,.T.);
#275=ORIENTED_EDGE('',*,*,#214,.F.);
#276=ORIENTED_EDGE('',*,*,#202,.T.);
#277=ORIENTED_EDGE('',*,*,#205,.F.);
#278=ORIENTED_EDGE('',*,*,#204,.T.);
#279=ORIENTED_EDGE('',*,*,#215,.F.);
#280=ORIENTED_EDGE('',*,*,#216,.F.);
#281=ORIENTED_EDGE('',*,*,#212,.T.);
#282=ORIENTED_EDGE('',*,*,#217,.T.);
#283=ORIENTED_EDGE('',*,*,#218,.F.);
#284=ORIENTED_EDGE('',*,*,#210,.T.);
#285=ORIENTED_EDGE('',*,*,#219,.T.);
#286=ORIENTED_EDGE('',*,*,#207,.F.);
#287=ORIENTED_EDGE('',*,*,#211,.F.);
#288=ORIENTED_EDGE('',*,*,#218,.T.);
#289=ORIENTED_EDGE('',*,*,#201,.T.);
#290=ORIENTED_EDGE('',*,*,#208,.F.);
#291=ORIENTED_EDGE('',*,*,#219,.F.);
#292=ORIENTED_EDGE('',*,*,#217,.F.);
#293=ORIENTED_EDGE('',*,*,#209,.F.);
#294=ORIENTED_EDGE('',*,*,#216,.T.);
#295=ORIENTED_EDGE('',*,*,#220,.F.);
#296=ORIENTED_EDGE('',*,*,#213,.F.);
#297=ORIENTED_EDGE('',*,*,#215,.T.);
#298=ORIENTED_EDGE('',*,*,#221,.T.);
#299=ORIENTED_EDGE('',*,*,#194,.T.);
#300=ORIENTED_EDGE('',*,*,#222,.T.);
#301=ORIENTED_EDGE('',*,*,#203,.T.);
#302=ORIENTED_EDGE('',*,*,#223,.F.);
#303=ORIENTED_EDGE('',*,*,#183,.T.);
#304=ORIENTED_EDGE('',*,*,#221,.F.);
#305=ORIENTED_EDGE('',*,*,#214,.T.);
#306=ORIENTED_EDGE('',*,*,#224,.T.);
#307=ORIENTED_EDGE('',*,*,#195,.T.);
#308=ORIENTED_EDGE('',*,*,#223,.T.);
#309=ORIENTED_EDGE('',*,*,#220,.T.);
#310=ORIENTED_EDGE('',*,*,#222,.F.);
#311=ORIENTED_EDGE('',*,*,#200,.T.);
#312=ORIENTED_EDGE('',*,*,#224,.F.);
#313=CYLINDRICAL_SURFACE('',#359,16.);
#314=CYLINDRICAL_SURFACE('',#371,8.);
#315=CYLINDRICAL_SURFACE('',#372,16.);
#316=CYLINDRICAL_SURFACE('',#384,8.);
#317=ADVANCED_FACE('',(#33),#313,.T.);
#318=ADVANCED_FACE('',(#34),#15,.T.);
#319=ADVANCED_FACE('',(#35),#16,.T.);
#320=ADVANCED_FACE('',(#36),#17,.T.);
#321=ADVANCED_FACE('',(#37),#18,.T.);
#322=ADVANCED_FACE('',(#38),#19,.T.);
#323=ADVANCED_FACE('',(#39),#20,.T.);
#324=ADVANCED_FACE('',(#40),#21,.F.);
#325=ADVANCED_FACE('',(#41),#314,.F.);
#326=ADVANCED_FACE('',(#42),#315,.T.);
#327=ADVANCED_FACE('',(#43),#22,.T.);
#328=ADVANCED_FACE('',(#44),#23,.T.);
#329=ADVANCED_FACE('',(#45),#24,.T.);
#330=ADVANCED_FACE('',(#46),#25,.T.);
#331=ADVANCED_FACE('',(#47),#26,.T.);
#332=ADVANCED_FACE('',(#48),#27,.T.);
#333=ADVANCED_FACE('',(#49),#28,.F.);
#334=ADVANCED_FACE('',(#50),#316,.F.);
#335=ADVANCED_FACE('',(#51),#29,.T.);
#336=ADVANCED_FACE('',(#52),#30,.F.);
#337=ADVANCED_FACE('',(#53),#31,.T.);
#338=ADVANCED_FACE('',(#54),#32,.T.);
#339=CLOSED_SHELL('',(#317,#318,#319,#320,#321,#322,#323,#324,#325,#326,
#327,#328,#329,#330,#331,#332,#333,#334,#335,#336,#337,#338));
#340=DERIVED_UNIT_ELEMENT(#342,1.);
#341=DERIVED_UNIT_ELEMENT(#583,3.);
#342=(
MASS_UNIT()
NAMED_UNIT(*)
SI_UNIT($,.GRAM.)
);
#343=DERIVED_UNIT((#340,#341));
#344=MEASURE_REPRESENTATION_ITEM('density measure',
POSITIVE_RATIO_MEASURE(7.86),#343);
#345=PROPERTY_DEFINITION_REPRESENTATION(#350,#347);
#346=PROPERTY_DEFINITION_REPRESENTATION(#351,#348);
#347=REPRESENTATION('material name',(#349),#580);
#348=REPRESENTATION('density',(#344),#580);
#349=DESCRIPTIVE_REPRESENTATION_ITEM('S235JR','S235JR');
#350=PROPERTY_DEFINITION('material property','material name',#590);
#351=PROPERTY_DEFINITION('material property','density of part',#590);
#352=DATE_TIME_ROLE('creation_date');
#353=APPLIED_DATE_AND_TIME_ASSIGNMENT(#354,#352,(#590));
#354=DATE_AND_TIME(#355,#356);
#355=CALENDAR_DATE(2011,16,2);
#356=LOCAL_TIME(11,16,36.,#357);
#357=COORDINATED_UNIVERSAL_TIME_OFFSET(0,0,.BEHIND.);
#358=AXIS2_PLACEMENT_3D('placement',#487,#389,#390);
#359=AXIS2_PLACEMENT_3D('',#488,#391,#392);
#360=AXIS2_PLACEMENT_3D('',#493,#394,#395);
#361=AXIS2_PLACEMENT_3D('',#496,#397,#398);
#362=AXIS2_PLACEMENT_3D('',#497,#399,#400);
#363=AXIS2_PLACEMENT_3D('',#505,#405,#406);
#364=AXIS2_PLACEMENT_3D('',#511,#410,#411);
#365=AXIS2_PLACEMENT_3D('',#514,#413,#414);
#366=AXIS2_PLACEMENT_3D('',#516,#416,#417);
#367=AXIS2_PLACEMENT_3D('',#519,#419,#420);
#368=AXIS2_PLACEMENT_3D('',#520,#421,#422);
#369=AXIS2_PLACEMENT_3D('',#524,#425,#426);
#370=AXIS2_PLACEMENT_3D('',#526,#428,#429);
#371=AXIS2_PLACEMENT_3D('',#527,#430,#431);
#372=AXIS2_PLACEMENT_3D('',#529,#433,#434);
#373=AXIS2_PLACEMENT_3D('',#534,#436,#437);
#374=AXIS2_PLACEMENT_3D('',#537,#439,#440);
#375=AXIS2_PLACEMENT_3D('',#538,#441,#442);
#376=AXIS2_PLACEMENT_3D('',#546,#447,#448);
#377=AXIS2_PLACEMENT_3D('',#552,#452,#453);
#378=AXIS2_PLACEMENT_3D('',#555,#455,#456);
#379=AXIS2_PLACEMENT_3D('',#557,#458,#459);
#380=AXIS2_PLACEMENT_3D('',#560,#461,#462);
#381=AXIS2_PLACEMENT_3D('',#561,#463,#464);
#382=AXIS2_PLACEMENT_3D('',#565,#467,#468);
#383=AXIS2_PLACEMENT_3D('',#567,#470,#471);
#384=AXIS2_PLACEMENT_3D('',#568,#472,#473);
#385=AXIS2_PLACEMENT_3D('',#570,#475,#476);
#386=AXIS2_PLACEMENT_3D('',#573,#479,#480);
#387=AXIS2_PLACEMENT_3D('',#575,#482,#483);
#388=AXIS2_PLACEMENT_3D('',#577,#485,#486);
#389=DIRECTION('axis',(0.,0.,1.));
#390=DIRECTION('refdir',(1.,0.,0.));
#391=DIRECTION('center_axis',(-1.,1.77635683940025E-17,0.));
#392=DIRECTION('ref_axis',(0.,0.,-1.));
#393=DIRECTION('',(1.,-1.75263412519886E-17,1.45259730069112E-35));
#394=DIRECTION('center_axis',(-1.,1.77635683940025E-17,0.));
#395=DIRECTION('ref_axis',(0.,0.,-1.));
#396=DIRECTION('',(-1.,1.77635683940025E-17,0.));
#397=DIRECTION('center_axis',(1.,-1.77635683940025E-17,0.));
#398=DIRECTION('ref_axis',(0.,-1.,-9.71445146547012E-16));
#399=DIRECTION('center_axis',(1.,-1.77635683940025E-17,0.));
#400=DIRECTION('ref_axis',(-1.77635683940025E-17,-1.,-6.12323399573677E-17));
#401=DIRECTION('',(1.77635683940025E-17,1.,6.12323399573677E-17));
#402=DIRECTION('',(-1.08770485875751E-33,0.,-1.));
#403=DIRECTION('',(-1.77635683940025E-17,-1.,-6.12323399573677E-17));
#404=DIRECTION('',(-1.08770485875751E-33,0.,-1.));
#405=DIRECTION('center_axis',(1.80007955360164E-17,1.,1.3286180825203E-16));
#406=DIRECTION('ref_axis',(1.,-1.80007955360164E-17,-1.77635683940025E-17));
#407=DIRECTION('',(-1.,1.80007955360164E-17,1.45259730069112E-35));
#408=DIRECTION('',(-1.08770485875751E-33,0.,-1.));
#409=DIRECTION('',(1.,-1.77635683940025E-17,0.));
#410=DIRECTION('center_axis',(-1.,1.77635683940025E-17,0.));
#411=DIRECTION('ref_axis',(0.,0.,1.));
#412=DIRECTION('',(-1.77635683940025E-17,-1.,-6.12323399573677E-17));
#413=DIRECTION('center_axis',(1.,-1.77635683940025E-17,0.));
#414=DIRECTION('ref_axis',(0.,-1.,8.32667268468868E-16));
#415=DIRECTION('',(0.,0.,1.));
#416=DIRECTION('center_axis',(1.,-1.77635683940025E-17,0.));
#417=DIRECTION('ref_axis',(0.,0.,-1.));
#418=DIRECTION('',(0.,0.,-1.));
#419=DIRECTION('center_axis',(1.,-1.77635683940025E-17,0.));
#420=DIRECTION('ref_axis',(0.,-1.,-8.32667268468868E-16));
#421=DIRECTION('center_axis',(-1.,1.77635683940025E-17,0.));
#422=DIRECTION('ref_axis',(1.77635683940025E-17,1.,6.12323399573677E-17));
#423=DIRECTION('',(0.,-6.12323399573677E-17,1.));
#424=DIRECTION('',(-1.77635683940025E-17,-1.,-6.12323399573677E-17));
#425=DIRECTION('center_axis',(0.,-6.12323399573677E-17,1.));
#426=DIRECTION('ref_axis',(-1.77635683940025E-17,-1.,-6.12323399573677E-17));
#427=DIRECTION('',(1.,-1.77635683940025E-17,0.));
#428=DIRECTION('center_axis',(1.75263412519886E-17,1.,1.3286180825203E-16));
#429=DIRECTION('ref_axis',(1.,-1.75263412519886E-17,-1.77635683940025E-17));
#430=DIRECTION('center_axis',(-1.,1.77635683940025E-17,0.));
#431=DIRECTION('ref_axis',(0.,0.,-1.));
#432=DIRECTION('',(1.,-1.77635683940025E-17,0.));
#433=DIRECTION('center_axis',(1.,1.77635683940025E-17,0.));
#434=DIRECTION('ref_axis',(0.,0.,-1.));
#435=DIRECTION('',(-1.,-1.80007955360164E-17,1.45259730069112E-35));
#436=DIRECTION('center_axis',(1.,1.77635683940025E-17,0.));
#437=DIRECTION('ref_axis',(0.,0.,-1.));
#438=DIRECTION('',(1.,1.77635683940025E-17,0.));
#439=DIRECTION('center_axis',(-1.,-1.77635683940025E-17,0.));
#440=DIRECTION('ref_axis',(0.,1.,-9.71445146547012E-16));
#441=DIRECTION('center_axis',(-1.,-1.77635683940025E-17,0.));
#442=DIRECTION('ref_axis',(1.77635683940025E-17,-1.,6.12323399573677E-17));
#443=DIRECTION('',(1.77635683940025E-17,-1.,6.12323399573677E-17));
#444=DIRECTION('',(-1.08770485875751E-33,0.,-1.));
#445=DIRECTION('',(-1.77635683940025E-17,1.,-6.12323399573677E-17));
#446=DIRECTION('',(-1.08770485875751E-33,0.,-1.));
#447=DIRECTION('center_axis',(1.75263412519886E-17,-1.,1.3286180825203E-16));
#448=DIRECTION('ref_axis',(1.,1.75263412519886E-17,-1.77635683940025E-17));
#449=DIRECTION('',(1.,1.75263412519886E-17,1.45259730069112E-35));
#450=DIRECTION('',(-1.08770485875751E-33,0.,-1.));
#451=DIRECTION('',(-1.,-1.77635683940025E-17,0.));
#452=DIRECTION('center_axis',(1.,1.77635683940025E-17,0.));
#453=DIRECTION('ref_axis',(0.,0.,-1.));
#454=DIRECTION('',(-1.77635683940025E-17,1.,-6.12323399573677E-17));
#455=DIRECTION('center_axis',(-1.,-1.77635683940025E-17,0.));
#456=DIRECTION('ref_axis',(0.,1.,8.32667268468868E-16));
#457=DIRECTION('',(0.,0.,1.));
#458=DIRECTION('center_axis',(-1.,-1.77635683940025E-17,0.));
#459=DIRECTION('ref_axis',(0.,0.,1.));
#460=DIRECTION('',(0.,0.,-1.));
#461=DIRECTION('center_axis',(-1.,-1.77635683940025E-17,0.));
#462=DIRECTION('ref_axis',(0.,1.,-8.32667268468868E-16));
#463=DIRECTION('center_axis',(1.,1.77635683940025E-17,0.));
#464=DIRECTION('ref_axis',(-1.77635683940025E-17,1.,-6.12323399573677E-17));
#465=DIRECTION('',(0.,6.12323399573677E-17,1.));
#466=DIRECTION('',(-1.77635683940025E-17,1.,-6.12323399573677E-17));
#467=DIRECTION('center_axis',(0.,6.12323399573677E-17,1.));
#468=DIRECTION('ref_axis',(1.77635683940025E-17,-1.,6.12323399573677E-17));
#469=DIRECTION('',(-1.,-1.77635683940025E-17,0.));
#470=DIRECTION('center_axis',(1.80007955360164E-17,-1.,1.3286180825203E-16));
#471=DIRECTION('ref_axis',(1.,1.80007955360164E-17,-1.77635683940025E-17));
#472=DIRECTION('center_axis',(1.,1.77635683940025E-17,0.));
#473=DIRECTION('ref_axis',(0.,0.,-1.));
#474=DIRECTION('',(-1.,-1.77635683940025E-17,0.));
#475=DIRECTION('center_axis',(-1.,0.,0.));
#476=DIRECTION('ref_axis',(0.,0.,1.));
#477=DIRECTION('',(0.,-1.,0.));
#478=DIRECTION('',(0.,1.,0.));
#479=DIRECTION('center_axis',(0.,0.,1.));
#480=DIRECTION('ref_axis',(1.,0.,0.));
#481=DIRECTION('',(0.,1.,0.));
#482=DIRECTION('center_axis',(1.,0.,0.));
#483=DIRECTION('ref_axis',(0.,0.,-1.));
#484=DIRECTION('',(0.,-1.,0.));
#485=DIRECTION('center_axis',(0.,0.,1.));
#486=DIRECTION('ref_axis',(1.,0.,0.));
#487=CARTESIAN_POINT('',(0.,0.,0.));
#488=CARTESIAN_POINT('Origin',(500.,-71.5,16.));
#489=CARTESIAN_POINT('',(2.71952369396681E-15,-87.5,16.));
#490=CARTESIAN_POINT('',(1000.,-87.5,16.));
#491=CARTESIAN_POINT('',(500.,-87.5,16.));
#492=CARTESIAN_POINT('',(-8.59756710269721E-15,-71.5,-1.11022302462516E-15));
#493=CARTESIAN_POINT('Origin',(0.,-71.5,16.));
#494=CARTESIAN_POINT('',(1000.,-71.5,-1.11022302462516E-15));
#495=CARTESIAN_POINT('',(750.,-71.5,0.));
#496=CARTESIAN_POINT('Origin',(1000.,-71.5,16.));
#497=CARTESIAN_POINT('Origin',(1000.,-79.5,16.));
#498=CARTESIAN_POINT('',(1000.,-79.5,16.));
#499=CARTESIAN_POINT('',(1000.,-81.26,16.));
#500=CARTESIAN_POINT('',(1000.,-79.5,72.));
#501=CARTESIAN_POINT('',(1000.,-79.5,-20.1911473693544));
#502=CARTESIAN_POINT('',(1000.,-87.5,72.));
#503=CARTESIAN_POINT('',(1000.,-79.5,72.));
#504=CARTESIAN_POINT('',(1000.,-87.5,-20.1911473693544));
#505=CARTESIAN_POINT('Origin',(500.,-79.5,34.9522131576614));
#506=CARTESIAN_POINT('',(1.4122036873232E-15,-79.5,16.));
#507=CARTESIAN_POINT('',(500.,-79.5,16.));
#508=CARTESIAN_POINT('',(2.86163224111883E-15,-79.5,72.));
#509=CARTESIAN_POINT('',(1.4122036873232E-15,-79.5,-20.1911473693544));
#510=CARTESIAN_POINT('',(2.86163224111883E-15,-79.5,72.));
#511=CARTESIAN_POINT('Origin',(0.,-79.5,16.));
#512=CARTESIAN_POINT('',(1.70238176772623E-15,-81.26,16.));
#513=CARTESIAN_POINT('',(-8.59756710269721E-15,-71.5,8.));
#514=CARTESIAN_POINT('Origin',(0.,-71.5,16.));
#515=CARTESIAN_POINT('',(0.,-71.5,4.));
#516=CARTESIAN_POINT('Origin',(1000.,-87.5,16.));
#517=CARTESIAN_POINT('',(1000.,-71.5,8.));
#518=CARTESIAN_POINT('',(1000.,-71.5,4.));
#519=CARTESIAN_POINT('Origin',(1000.,-71.5,16.));
#520=CARTESIAN_POINT('Origin',(1.4122036873232E-15,-79.5,16.));
#521=CARTESIAN_POINT('',(2.71952369396681E-15,-87.5,72.));
#522=CARTESIAN_POINT('',(2.71952369396681E-15,-87.5,16.));
#523=CARTESIAN_POINT('',(2.86163224111883E-15,-79.5,72.));
#524=CARTESIAN_POINT('Origin',(2.86163224111883E-15,-79.5,72.));
#525=CARTESIAN_POINT('',(2.71952369396681E-15,-87.5,72.));
#526=CARTESIAN_POINT('Origin',(500.,-87.5,34.9522131576614));
#527=CARTESIAN_POINT('Origin',(500.,-71.5,16.));
#528=CARTESIAN_POINT('',(750.,-71.5,8.));
#529=CARTESIAN_POINT('Origin',(500.,71.5,16.));
#530=CARTESIAN_POINT('',(1000.,87.5,16.));
#531=CARTESIAN_POINT('',(1.27009514017118E-15,87.5,16.));
#532=CARTESIAN_POINT('',(500.,87.5,16.));
#533=CARTESIAN_POINT('',(1000.,71.5,-1.11022302462516E-15));
#534=CARTESIAN_POINT('Origin',(1000.,71.5,16.));
#535=CARTESIAN_POINT('',(-8.59756710269721E-15,71.5,-1.11022302462516E-15));
#536=CARTESIAN_POINT('',(250.,71.5,0.));
#537=CARTESIAN_POINT('Origin',(0.,71.5,16.));
#538=CARTESIAN_POINT('Origin',(1.4122036873232E-15,79.5,16.));
#539=CARTESIAN_POINT('',(1.4122036873232E-15,79.5,16.));
#540=CARTESIAN_POINT('',(1.70238176772623E-15,81.26,16.));
#541=CARTESIAN_POINT('',(2.86163224111883E-15,79.5,72.));
#542=CARTESIAN_POINT('',(1.4122036873232E-15,79.5,-20.1911473693544));
#543=CARTESIAN_POINT('',(2.71952369396681E-15,87.5,72.));
#544=CARTESIAN_POINT('',(2.86163224111883E-15,79.5,72.));
#545=CARTESIAN_POINT('',(1.27009514017118E-15,87.5,-20.1911473693544));
#546=CARTESIAN_POINT('Origin',(500.,79.5,34.9522131576614));
#547=CARTESIAN_POINT('',(1000.,79.5,16.));
#548=CARTESIAN_POINT('',(500.,79.5,16.));
#549=CARTESIAN_POINT('',(1000.,79.5,72.));
#550=CARTESIAN_POINT('',(1000.,79.5,-20.1911473693544));
#551=CARTESIAN_POINT('',(1000.,79.5,72.));
#552=CARTESIAN_POINT('Origin',(1000.,79.5,16.));
#553=CARTESIAN_POINT('',(1000.,81.26,16.));
#554=CARTESIAN_POINT('',(1000.,71.5,8.));
#555=CARTESIAN_POINT('Origin',(1000.,71.5,16.));
#556=CARTESIAN_POINT('',(1000.,71.5,4.));
#557=CARTESIAN_POINT('Origin',(0.,87.5,16.));
#558=CARTESIAN_POINT('',(-8.59756710269721E-15,71.5,8.));
#559=CARTESIAN_POINT('',(-8.88178419700125E-15,71.5,4.));
#560=CARTESIAN_POINT('Origin',(0.,71.5,16.));
#561=CARTESIAN_POINT('Origin',(1000.,79.5,16.));
#562=CARTESIAN_POINT('',(1000.,87.5,72.));
#563=CARTESIAN_POINT('',(1000.,87.5,16.));
#564=CARTESIAN_POINT('',(1000.,79.5,72.));
#565=CARTESIAN_POINT('Origin',(1000.,79.5,72.));
#566=CARTESIAN_POINT('',(1000.,87.5,72.));
#567=CARTESIAN_POINT('Origin',(500.,87.5,34.9522131576614));
#568=CARTESIAN_POINT('Origin',(500.,71.5,16.));
#569=CARTESIAN_POINT('',(250.,71.5,8.));
#570=CARTESIAN_POINT('Origin',(-8.88178419700125E-15,-87.5,0.));
#571=CARTESIAN_POINT('',(-8.88178419700125E-15,87.5,0.));
#572=CARTESIAN_POINT('',(-8.88178419700125E-15,87.5,8.));
#573=CARTESIAN_POINT('Origin',(500.,0.,0.));
#574=CARTESIAN_POINT('',(1000.,-87.5,0.));
#575=CARTESIAN_POINT('Origin',(1000.,87.5,0.));
#576=CARTESIAN_POINT('',(1000.,-87.5,8.));
#577=CARTESIAN_POINT('Origin',(500.,3.60768797170264E-16,8.));
#578=UNCERTAINTY_MEASURE_WITH_UNIT(LENGTH_MEASURE(0.01),#582,
'DISTANCE_ACCURACY_VALUE',
'Maximum model space distance between geometric entities at asserted c
onnectivities');
#579=UNCERTAINTY_MEASURE_WITH_UNIT(LENGTH_MEASURE(0.01),#582,
'DISTANCE_ACCURACY_VALUE',
'Maximum model space distance between geometric entities at asserted c
onnectivities');
#580=(
GEOMETRIC_REPRESENTATION_CONTEXT(3)
GLOBAL_UNCERTAINTY_ASSIGNED_CONTEXT((#578))
GLOBAL_UNIT_ASSIGNED_CONTEXT((#582,#584,#585))
REPRESENTATION_CONTEXT('','3D')
);
#581=(
GEOMETRIC_REPRESENTATION_CONTEXT(3)
GLOBAL_UNCERTAINTY_ASSIGNED_CONTEXT((#579))
GLOBAL_UNIT_ASSIGNED_CONTEXT((#582,#584,#585))
REPRESENTATION_CONTEXT('','3D')
);
#582=(
LENGTH_UNIT()
NAMED_UNIT(*)
SI_UNIT(.MILLI.,.METRE.)
);
#583=(
LENGTH_UNIT()
NAMED_UNIT(*)
SI_UNIT(.CENTI.,.METRE.)
);
#584=(
NAMED_UNIT(*)
PLANE_ANGLE_UNIT()
SI_UNIT($,.RADIAN.)
);
#585=(
NAMED_UNIT(*)
SI_UNIT($,.STERADIAN.)
SOLID_ANGLE_UNIT()
);
#586=SHAPE_DEFINITION_REPRESENTATION(#587,#588);
#587=PRODUCT_DEFINITION_SHAPE('',$,#590);
#588=SHAPE_REPRESENTATION('',(#358),#580);
#589=PRODUCT_DEFINITION_CONTEXT('part definition',#594,'design');
#590=PRODUCT_DEFINITION('UP 160.0730','UP 160.0730',#591,#589);
#591=PRODUCT_DEFINITION_FORMATION('',$,#596);
#592=PRODUCT_RELATED_PRODUCT_CATEGORY('UP 160.0730','UP 160.0730',(#596));
#593=APPLICATION_PROTOCOL_DEFINITION('international standard',
'automotive_design',2009,#594);
#594=APPLICATION_CONTEXT(
'Core Data for Automotive Mechanical Design Process');
#595=PRODUCT_CONTEXT('part definition',#594,'mechanical');
#596=PRODUCT('UP 160.0730','UP 160.0730','U-F\X\FChrungsprofil',(#595));
#597=PRESENTATION_STYLE_ASSIGNMENT((#598));
#598=SURFACE_STYLE_USAGE(.BOTH.,#601);
#599=SURFACE_STYLE_RENDERING_WITH_PROPERTIES($,#605,(#600));
#600=SURFACE_STYLE_TRANSPARENT(0.);
#601=SURFACE_SIDE_STYLE('',(#602,#599));
#602=SURFACE_STYLE_FILL_AREA(#603);
#603=FILL_AREA_STYLE('',(#604));
#604=FILL_AREA_STYLE_COLOUR('',#605);
#605=COLOUR_RGB('',0.87843137254902,0.874509803921569,0.858823529411765);
ENDSEC;
END-ISO-10303-21;
