ISO-10303-21;
HEADER;
/* Generated by software containing ST-Developer
 * from STEP Tools, Inc. (www.steptools.com) 
 */

FILE_DESCRIPTION(
/* description */ ('U-F\X\FChrungsprofil Edelstahl'),
/* implementation_level */ '2;1');

FILE_NAME(
/* name */ 
'C:\\VAULT_WORKSPACE\\Projekte\\Werksnorm\\Profile\\UP xxx.0780\\ALFAT
EC_UP070.0780.stp',
/* time_stamp */ '2021-02-09T12:59:27+01:00',
/* author */ ('kstaebler'),
/* organization */ (''),
/* preprocessor_version */ 'ST-DEVELOPER v18.1',
/* originating_system */ 'Autodesk Inventor 2020',
/* authorisation */ '');

FILE_SCHEMA (('AUTOMOTIVE_DESIGN { 1 0 10303 214 3 1 1 }'));
ENDSEC;

DATA;
#10=MECHANICAL_DESIGN_GEOMETRIC_PRESENTATION_REPRESENTATION('',(#13),#667);
#11=SHAPE_REPRESENTATION_RELATIONSHIP('SRR','None',#674,#12);
#12=ADVANCED_BREP_SHAPE_REPRESENTATION('',(#14),#666);
#13=STYLED_ITEM('',(#683),#14);
#14=MANIFOLD_SOLID_BREP('Volumenk\X\F6rper1',#385);
#15=CIRCLE('',#407,2.99999999999878);
#16=CIRCLE('',#408,2.99999999999878);
#17=CIRCLE('',#411,2.99999999999901);
#18=CIRCLE('',#412,2.99999999999901);
#19=CIRCLE('',#417,2.99999999999901);
#20=CIRCLE('',#418,2.99999999999901);
#21=CIRCLE('',#421,2.99999999999878);
#22=CIRCLE('',#422,2.99999999999878);
#23=CIRCLE('',#425,2.99999999999878);
#24=CIRCLE('',#426,2.99999999999878);
#25=CIRCLE('',#429,2.9999999999994);
#26=CIRCLE('',#430,2.9999999999994);
#27=CIRCLE('',#433,2.9999999999994);
#28=CIRCLE('',#434,2.9999999999994);
#29=CIRCLE('',#437,2.99999999999879);
#30=CIRCLE('',#438,2.99999999999879);
#31=CYLINDRICAL_SURFACE('',#406,2.99999999999878);
#32=CYLINDRICAL_SURFACE('',#410,2.99999999999901);
#33=CYLINDRICAL_SURFACE('',#416,2.99999999999901);
#34=CYLINDRICAL_SURFACE('',#420,2.99999999999878);
#35=CYLINDRICAL_SURFACE('',#424,2.99999999999878);
#36=CYLINDRICAL_SURFACE('',#428,2.9999999999994);
#37=CYLINDRICAL_SURFACE('',#432,2.9999999999994);
#38=CYLINDRICAL_SURFACE('',#436,2.99999999999879);
#39=FACE_OUTER_BOUND('',#59,.T.);
#40=FACE_OUTER_BOUND('',#60,.T.);
#41=FACE_OUTER_BOUND('',#61,.T.);
#42=FACE_OUTER_BOUND('',#62,.T.);
#43=FACE_OUTER_BOUND('',#63,.T.);
#44=FACE_OUTER_BOUND('',#64,.T.);
#45=FACE_OUTER_BOUND('',#65,.T.);
#46=FACE_OUTER_BOUND('',#66,.T.);
#47=FACE_OUTER_BOUND('',#67,.T.);
#48=FACE_OUTER_BOUND('',#68,.T.);
#49=FACE_OUTER_BOUND('',#69,.T.);
#50=FACE_OUTER_BOUND('',#70,.T.);
#51=FACE_OUTER_BOUND('',#71,.T.);
#52=FACE_OUTER_BOUND('',#72,.T.);
#53=FACE_OUTER_BOUND('',#73,.T.);
#54=FACE_OUTER_BOUND('',#74,.T.);
#55=FACE_OUTER_BOUND('',#75,.T.);
#56=FACE_OUTER_BOUND('',#76,.T.);
#57=FACE_OUTER_BOUND('',#77,.T.);
#58=FACE_OUTER_BOUND('',#78,.T.);
#59=EDGE_LOOP('',(#245,#246,#247,#248));
#60=EDGE_LOOP('',(#249,#250,#251,#252));
#61=EDGE_LOOP('',(#253,#254,#255,#256));
#62=EDGE_LOOP('',(#257,#258,#259,#260));
#63=EDGE_LOOP('',(#261,#262,#263,#264));
#64=EDGE_LOOP('',(#265,#266,#267,#268));
#65=EDGE_LOOP('',(#269,#270,#271,#272));
#66=EDGE_LOOP('',(#273,#274,#275,#276));
#67=EDGE_LOOP('',(#277,#278,#279,#280));
#68=EDGE_LOOP('',(#281,#282,#283,#284));
#69=EDGE_LOOP('',(#285,#286,#287,#288));
#70=EDGE_LOOP('',(#289,#290,#291,#292));
#71=EDGE_LOOP('',(#293,#294,#295,#296));
#72=EDGE_LOOP('',(#297,#298,#299,#300));
#73=EDGE_LOOP('',(#301,#302,#303,#304));
#74=EDGE_LOOP('',(#305,#306,#307,#308));
#75=EDGE_LOOP('',(#309,#310,#311,#312));
#76=EDGE_LOOP('',(#313,#314,#315,#316));
#77=EDGE_LOOP('',(#317,#318,#319,#320,#321,#322,#323,#324,#325,#326,#327,
#328,#329,#330,#331,#332,#333,#334));
#78=EDGE_LOOP('',(#335,#336,#337,#338,#339,#340,#341,#342,#343,#344,#345,
#346,#347,#348,#349,#350,#351,#352));
#79=LINE('',#557,#117);
#80=LINE('',#559,#118);
#81=LINE('',#561,#119);
#82=LINE('',#562,#120);
#83=LINE('',#567,#121);
#84=LINE('',#571,#122);
#85=LINE('',#573,#123);
#86=LINE('',#574,#124);
#87=LINE('',#579,#125);
#88=LINE('',#583,#126);
#89=LINE('',#585,#127);
#90=LINE('',#586,#128);
#91=LINE('',#589,#129);
#92=LINE('',#591,#130);
#93=LINE('',#592,#131);
#94=LINE('',#595,#132);
#95=LINE('',#597,#133);
#96=LINE('',#598,#134);
#97=LINE('',#603,#135);
#98=LINE('',#607,#136);
#99=LINE('',#609,#137);
#100=LINE('',#610,#138);
#101=LINE('',#615,#139);
#102=LINE('',#619,#140);
#103=LINE('',#621,#141);
#104=LINE('',#622,#142);
#105=LINE('',#627,#143);
#106=LINE('',#631,#144);
#107=LINE('',#633,#145);
#108=LINE('',#634,#146);
#109=LINE('',#639,#147);
#110=LINE('',#643,#148);
#111=LINE('',#645,#149);
#112=LINE('',#646,#150);
#113=LINE('',#651,#151);
#114=LINE('',#655,#152);
#115=LINE('',#657,#153);
#116=LINE('',#658,#154);
#117=VECTOR('',#445,10.);
#118=VECTOR('',#446,10.);
#119=VECTOR('',#447,10.);
#120=VECTOR('',#448,10.);
#121=VECTOR('',#453,10.);
#122=VECTOR('',#458,10.);
#123=VECTOR('',#459,10.);
#124=VECTOR('',#460,10.);
#125=VECTOR('',#465,10.);
#126=VECTOR('',#470,10.);
#127=VECTOR('',#471,10.);
#128=VECTOR('',#472,10.);
#129=VECTOR('',#475,10.);
#130=VECTOR('',#476,10.);
#131=VECTOR('',#477,10.);
#132=VECTOR('',#480,10.);
#133=VECTOR('',#481,10.);
#134=VECTOR('',#482,10.);
#135=VECTOR('',#487,10.);
#136=VECTOR('',#492,10.);
#137=VECTOR('',#493,10.);
#138=VECTOR('',#494,10.);
#139=VECTOR('',#499,10.);
#140=VECTOR('',#504,10.);
#141=VECTOR('',#505,10.);
#142=VECTOR('',#506,10.);
#143=VECTOR('',#511,10.);
#144=VECTOR('',#516,10.);
#145=VECTOR('',#517,10.);
#146=VECTOR('',#518,10.);
#147=VECTOR('',#523,10.);
#148=VECTOR('',#528,10.);
#149=VECTOR('',#529,10.);
#150=VECTOR('',#530,10.);
#151=VECTOR('',#535,10.);
#152=VECTOR('',#540,10.);
#153=VECTOR('',#541,10.);
#154=VECTOR('',#542,10.);
#155=VERTEX_POINT('',#555);
#156=VERTEX_POINT('',#556);
#157=VERTEX_POINT('',#558);
#158=VERTEX_POINT('',#560);
#159=VERTEX_POINT('',#564);
#160=VERTEX_POINT('',#566);
#161=VERTEX_POINT('',#570);
#162=VERTEX_POINT('',#572);
#163=VERTEX_POINT('',#576);
#164=VERTEX_POINT('',#578);
#165=VERTEX_POINT('',#582);
#166=VERTEX_POINT('',#584);
#167=VERTEX_POINT('',#588);
#168=VERTEX_POINT('',#590);
#169=VERTEX_POINT('',#594);
#170=VERTEX_POINT('',#596);
#171=VERTEX_POINT('',#600);
#172=VERTEX_POINT('',#602);
#173=VERTEX_POINT('',#606);
#174=VERTEX_POINT('',#608);
#175=VERTEX_POINT('',#612);
#176=VERTEX_POINT('',#614);
#177=VERTEX_POINT('',#618);
#178=VERTEX_POINT('',#620);
#179=VERTEX_POINT('',#624);
#180=VERTEX_POINT('',#626);
#181=VERTEX_POINT('',#630);
#182=VERTEX_POINT('',#632);
#183=VERTEX_POINT('',#636);
#184=VERTEX_POINT('',#638);
#185=VERTEX_POINT('',#642);
#186=VERTEX_POINT('',#644);
#187=VERTEX_POINT('',#648);
#188=VERTEX_POINT('',#650);
#189=VERTEX_POINT('',#654);
#190=VERTEX_POINT('',#656);
#191=EDGE_CURVE('',#155,#156,#79,.T.);
#192=EDGE_CURVE('',#157,#156,#80,.T.);
#193=EDGE_CURVE('',#157,#158,#81,.T.);
#194=EDGE_CURVE('',#158,#155,#82,.T.);
#195=EDGE_CURVE('',#156,#159,#15,.T.);
#196=EDGE_CURVE('',#160,#159,#83,.T.);
#197=EDGE_CURVE('',#160,#157,#16,.T.);
#198=EDGE_CURVE('',#159,#161,#84,.T.);
#199=EDGE_CURVE('',#162,#161,#85,.T.);
#200=EDGE_CURVE('',#162,#160,#86,.T.);
#201=EDGE_CURVE('',#161,#163,#17,.T.);
#202=EDGE_CURVE('',#164,#163,#87,.T.);
#203=EDGE_CURVE('',#164,#162,#18,.T.);
#204=EDGE_CURVE('',#163,#165,#88,.T.);
#205=EDGE_CURVE('',#166,#165,#89,.T.);
#206=EDGE_CURVE('',#166,#164,#90,.T.);
#207=EDGE_CURVE('',#165,#167,#91,.T.);
#208=EDGE_CURVE('',#168,#167,#92,.T.);
#209=EDGE_CURVE('',#168,#166,#93,.T.);
#210=EDGE_CURVE('',#167,#169,#94,.T.);
#211=EDGE_CURVE('',#170,#169,#95,.T.);
#212=EDGE_CURVE('',#170,#168,#96,.T.);
#213=EDGE_CURVE('',#169,#171,#19,.T.);
#214=EDGE_CURVE('',#172,#171,#97,.T.);
#215=EDGE_CURVE('',#172,#170,#20,.T.);
#216=EDGE_CURVE('',#171,#173,#98,.T.);
#217=EDGE_CURVE('',#174,#173,#99,.T.);
#218=EDGE_CURVE('',#174,#172,#100,.T.);
#219=EDGE_CURVE('',#173,#175,#21,.T.);
#220=EDGE_CURVE('',#176,#175,#101,.T.);
#221=EDGE_CURVE('',#176,#174,#22,.T.);
#222=EDGE_CURVE('',#175,#177,#102,.T.);
#223=EDGE_CURVE('',#178,#177,#103,.T.);
#224=EDGE_CURVE('',#178,#176,#104,.T.);
#225=EDGE_CURVE('',#177,#179,#23,.T.);
#226=EDGE_CURVE('',#180,#179,#105,.T.);
#227=EDGE_CURVE('',#180,#178,#24,.T.);
#228=EDGE_CURVE('',#179,#181,#106,.T.);
#229=EDGE_CURVE('',#182,#181,#107,.T.);
#230=EDGE_CURVE('',#182,#180,#108,.T.);
#231=EDGE_CURVE('',#181,#183,#25,.T.);
#232=EDGE_CURVE('',#184,#183,#109,.T.);
#233=EDGE_CURVE('',#184,#182,#26,.T.);
#234=EDGE_CURVE('',#183,#185,#110,.T.);
#235=EDGE_CURVE('',#186,#185,#111,.T.);
#236=EDGE_CURVE('',#186,#184,#112,.T.);
#237=EDGE_CURVE('',#185,#187,#27,.T.);
#238=EDGE_CURVE('',#188,#187,#113,.T.);
#239=EDGE_CURVE('',#188,#186,#28,.T.);
#240=EDGE_CURVE('',#187,#189,#114,.T.);
#241=EDGE_CURVE('',#190,#189,#115,.T.);
#242=EDGE_CURVE('',#190,#188,#116,.T.);
#243=EDGE_CURVE('',#189,#155,#29,.T.);
#244=EDGE_CURVE('',#158,#190,#30,.T.);
#245=ORIENTED_EDGE('',*,*,#191,.T.);
#246=ORIENTED_EDGE('',*,*,#192,.F.);
#247=ORIENTED_EDGE('',*,*,#193,.T.);
#248=ORIENTED_EDGE('',*,*,#194,.T.);
#249=ORIENTED_EDGE('',*,*,#195,.T.);
#250=ORIENTED_EDGE('',*,*,#196,.F.);
#251=ORIENTED_EDGE('',*,*,#197,.T.);
#252=ORIENTED_EDGE('',*,*,#192,.T.);
#253=ORIENTED_EDGE('',*,*,#198,.T.);
#254=ORIENTED_EDGE('',*,*,#199,.F.);
#255=ORIENTED_EDGE('',*,*,#200,.T.);
#256=ORIENTED_EDGE('',*,*,#196,.T.);
#257=ORIENTED_EDGE('',*,*,#201,.T.);
#258=ORIENTED_EDGE('',*,*,#202,.F.);
#259=ORIENTED_EDGE('',*,*,#203,.T.);
#260=ORIENTED_EDGE('',*,*,#199,.T.);
#261=ORIENTED_EDGE('',*,*,#204,.T.);
#262=ORIENTED_EDGE('',*,*,#205,.F.);
#263=ORIENTED_EDGE('',*,*,#206,.T.);
#264=ORIENTED_EDGE('',*,*,#202,.T.);
#265=ORIENTED_EDGE('',*,*,#207,.T.);
#266=ORIENTED_EDGE('',*,*,#208,.F.);
#267=ORIENTED_EDGE('',*,*,#209,.T.);
#268=ORIENTED_EDGE('',*,*,#205,.T.);
#269=ORIENTED_EDGE('',*,*,#210,.T.);
#270=ORIENTED_EDGE('',*,*,#211,.F.);
#271=ORIENTED_EDGE('',*,*,#212,.T.);
#272=ORIENTED_EDGE('',*,*,#208,.T.);
#273=ORIENTED_EDGE('',*,*,#213,.T.);
#274=ORIENTED_EDGE('',*,*,#214,.F.);
#275=ORIENTED_EDGE('',*,*,#215,.T.);
#276=ORIENTED_EDGE('',*,*,#211,.T.);
#277=ORIENTED_EDGE('',*,*,#216,.T.);
#278=ORIENTED_EDGE('',*,*,#217,.F.);
#279=ORIENTED_EDGE('',*,*,#218,.T.);
#280=ORIENTED_EDGE('',*,*,#214,.T.);
#281=ORIENTED_EDGE('',*,*,#219,.T.);
#282=ORIENTED_EDGE('',*,*,#220,.F.);
#283=ORIENTED_EDGE('',*,*,#221,.T.);
#284=ORIENTED_EDGE('',*,*,#217,.T.);
#285=ORIENTED_EDGE('',*,*,#222,.T.);
#286=ORIENTED_EDGE('',*,*,#223,.F.);
#287=ORIENTED_EDGE('',*,*,#224,.T.);
#288=ORIENTED_EDGE('',*,*,#220,.T.);
#289=ORIENTED_EDGE('',*,*,#225,.T.);
#290=ORIENTED_EDGE('',*,*,#226,.F.);
#291=ORIENTED_EDGE('',*,*,#227,.T.);
#292=ORIENTED_EDGE('',*,*,#223,.T.);
#293=ORIENTED_EDGE('',*,*,#228,.T.);
#294=ORIENTED_EDGE('',*,*,#229,.F.);
#295=ORIENTED_EDGE('',*,*,#230,.T.);
#296=ORIENTED_EDGE('',*,*,#226,.T.);
#297=ORIENTED_EDGE('',*,*,#231,.T.);
#298=ORIENTED_EDGE('',*,*,#232,.F.);
#299=ORIENTED_EDGE('',*,*,#233,.T.);
#300=ORIENTED_EDGE('',*,*,#229,.T.);
#301=ORIENTED_EDGE('',*,*,#234,.T.);
#302=ORIENTED_EDGE('',*,*,#235,.F.);
#303=ORIENTED_EDGE('',*,*,#236,.T.);
#304=ORIENTED_EDGE('',*,*,#232,.T.);
#305=ORIENTED_EDGE('',*,*,#237,.T.);
#306=ORIENTED_EDGE('',*,*,#238,.F.);
#307=ORIENTED_EDGE('',*,*,#239,.T.);
#308=ORIENTED_EDGE('',*,*,#235,.T.);
#309=ORIENTED_EDGE('',*,*,#240,.T.);
#310=ORIENTED_EDGE('',*,*,#241,.F.);
#311=ORIENTED_EDGE('',*,*,#242,.T.);
#312=ORIENTED_EDGE('',*,*,#238,.T.);
#313=ORIENTED_EDGE('',*,*,#243,.T.);
#314=ORIENTED_EDGE('',*,*,#194,.F.);
#315=ORIENTED_EDGE('',*,*,#244,.T.);
#316=ORIENTED_EDGE('',*,*,#241,.T.);
#317=ORIENTED_EDGE('',*,*,#244,.F.);
#318=ORIENTED_EDGE('',*,*,#193,.F.);
#319=ORIENTED_EDGE('',*,*,#197,.F.);
#320=ORIENTED_EDGE('',*,*,#200,.F.);
#321=ORIENTED_EDGE('',*,*,#203,.F.);
#322=ORIENTED_EDGE('',*,*,#206,.F.);
#323=ORIENTED_EDGE('',*,*,#209,.F.);
#324=ORIENTED_EDGE('',*,*,#212,.F.);
#325=ORIENTED_EDGE('',*,*,#215,.F.);
#326=ORIENTED_EDGE('',*,*,#218,.F.);
#327=ORIENTED_EDGE('',*,*,#221,.F.);
#328=ORIENTED_EDGE('',*,*,#224,.F.);
#329=ORIENTED_EDGE('',*,*,#227,.F.);
#330=ORIENTED_EDGE('',*,*,#230,.F.);
#331=ORIENTED_EDGE('',*,*,#233,.F.);
#332=ORIENTED_EDGE('',*,*,#236,.F.);
#333=ORIENTED_EDGE('',*,*,#239,.F.);
#334=ORIENTED_EDGE('',*,*,#242,.F.);
#335=ORIENTED_EDGE('',*,*,#191,.F.);
#336=ORIENTED_EDGE('',*,*,#243,.F.);
#337=ORIENTED_EDGE('',*,*,#240,.F.);
#338=ORIENTED_EDGE('',*,*,#237,.F.);
#339=ORIENTED_EDGE('',*,*,#234,.F.);
#340=ORIENTED_EDGE('',*,*,#231,.F.);
#341=ORIENTED_EDGE('',*,*,#228,.F.);
#342=ORIENTED_EDGE('',*,*,#225,.F.);
#343=ORIENTED_EDGE('',*,*,#222,.F.);
#344=ORIENTED_EDGE('',*,*,#219,.F.);
#345=ORIENTED_EDGE('',*,*,#216,.F.);
#346=ORIENTED_EDGE('',*,*,#213,.F.);
#347=ORIENTED_EDGE('',*,*,#210,.F.);
#348=ORIENTED_EDGE('',*,*,#207,.F.);
#349=ORIENTED_EDGE('',*,*,#204,.F.);
#350=ORIENTED_EDGE('',*,*,#201,.F.);
#351=ORIENTED_EDGE('',*,*,#198,.F.);
#352=ORIENTED_EDGE('',*,*,#195,.F.);
#353=PLANE('',#405);
#354=PLANE('',#409);
#355=PLANE('',#413);
#356=PLANE('',#414);
#357=PLANE('',#415);
#358=PLANE('',#419);
#359=PLANE('',#423);
#360=PLANE('',#427);
#361=PLANE('',#431);
#362=PLANE('',#435);
#363=PLANE('',#439);
#364=PLANE('',#440);
#365=ADVANCED_FACE('',(#39),#353,.T.);
#366=ADVANCED_FACE('',(#40),#31,.T.);
#367=ADVANCED_FACE('',(#41),#354,.T.);
#368=ADVANCED_FACE('',(#42),#32,.F.);
#369=ADVANCED_FACE('',(#43),#355,.T.);
#370=ADVANCED_FACE('',(#44),#356,.T.);
#371=ADVANCED_FACE('',(#45),#357,.T.);
#372=ADVANCED_FACE('',(#46),#33,.F.);
#373=ADVANCED_FACE('',(#47),#358,.T.);
#374=ADVANCED_FACE('',(#48),#34,.T.);
#375=ADVANCED_FACE('',(#49),#359,.T.);
#376=ADVANCED_FACE('',(#50),#35,.T.);
#377=ADVANCED_FACE('',(#51),#360,.T.);
#378=ADVANCED_FACE('',(#52),#36,.T.);
#379=ADVANCED_FACE('',(#53),#361,.T.);
#380=ADVANCED_FACE('',(#54),#37,.T.);
#381=ADVANCED_FACE('',(#55),#362,.T.);
#382=ADVANCED_FACE('',(#56),#38,.T.);
#383=ADVANCED_FACE('',(#57),#363,.F.);
#384=ADVANCED_FACE('',(#58),#364,.T.);
#385=CLOSED_SHELL('',(#365,#366,#367,#368,#369,#370,#371,#372,#373,#374,
#375,#376,#377,#378,#379,#380,#381,#382,#383,#384));
#386=DERIVED_UNIT_ELEMENT(#388,1.);
#387=DERIVED_UNIT_ELEMENT(#669,3.);
#388=(
MASS_UNIT()
NAMED_UNIT(*)
SI_UNIT($,.GRAM.)
);
#389=DERIVED_UNIT((#386,#387));
#390=MEASURE_REPRESENTATION_ITEM('density measure',
POSITIVE_RATIO_MEASURE(7.75),#389);
#391=PROPERTY_DEFINITION_REPRESENTATION(#396,#393);
#392=PROPERTY_DEFINITION_REPRESENTATION(#397,#394);
#393=REPRESENTATION('material name',(#395),#666);
#394=REPRESENTATION('density',(#390),#666);
#395=DESCRIPTIVE_REPRESENTATION_ITEM('X 5 Cr Ni 18.9 (1.4301)',
'X 5 Cr Ni 18.9 (1.4301)');
#396=PROPERTY_DEFINITION('material property','material name',#676);
#397=PROPERTY_DEFINITION('material property','density of part',#676);
#398=DATE_TIME_ROLE('creation_date');
#399=APPLIED_DATE_AND_TIME_ASSIGNMENT(#400,#398,(#676));
#400=DATE_AND_TIME(#401,#402);
#401=CALENDAR_DATE(2012,19,7);
#402=LOCAL_TIME(7,34,2.,#403);
#403=COORDINATED_UNIVERSAL_TIME_OFFSET(0,0,.BEHIND.);
#404=AXIS2_PLACEMENT_3D('placement',#553,#441,#442);
#405=AXIS2_PLACEMENT_3D('',#554,#443,#444);
#406=AXIS2_PLACEMENT_3D('',#563,#449,#450);
#407=AXIS2_PLACEMENT_3D('',#565,#451,#452);
#408=AXIS2_PLACEMENT_3D('',#568,#454,#455);
#409=AXIS2_PLACEMENT_3D('',#569,#456,#457);
#410=AXIS2_PLACEMENT_3D('',#575,#461,#462);
#411=AXIS2_PLACEMENT_3D('',#577,#463,#464);
#412=AXIS2_PLACEMENT_3D('',#580,#466,#467);
#413=AXIS2_PLACEMENT_3D('',#581,#468,#469);
#414=AXIS2_PLACEMENT_3D('',#587,#473,#474);
#415=AXIS2_PLACEMENT_3D('',#593,#478,#479);
#416=AXIS2_PLACEMENT_3D('',#599,#483,#484);
#417=AXIS2_PLACEMENT_3D('',#601,#485,#486);
#418=AXIS2_PLACEMENT_3D('',#604,#488,#489);
#419=AXIS2_PLACEMENT_3D('',#605,#490,#491);
#420=AXIS2_PLACEMENT_3D('',#611,#495,#496);
#421=AXIS2_PLACEMENT_3D('',#613,#497,#498);
#422=AXIS2_PLACEMENT_3D('',#616,#500,#501);
#423=AXIS2_PLACEMENT_3D('',#617,#502,#503);
#424=AXIS2_PLACEMENT_3D('',#623,#507,#508);
#425=AXIS2_PLACEMENT_3D('',#625,#509,#510);
#426=AXIS2_PLACEMENT_3D('',#628,#512,#513);
#427=AXIS2_PLACEMENT_3D('',#629,#514,#515);
#428=AXIS2_PLACEMENT_3D('',#635,#519,#520);
#429=AXIS2_PLACEMENT_3D('',#637,#521,#522);
#430=AXIS2_PLACEMENT_3D('',#640,#524,#525);
#431=AXIS2_PLACEMENT_3D('',#641,#526,#527);
#432=AXIS2_PLACEMENT_3D('',#647,#531,#532);
#433=AXIS2_PLACEMENT_3D('',#649,#533,#534);
#434=AXIS2_PLACEMENT_3D('',#652,#536,#537);
#435=AXIS2_PLACEMENT_3D('',#653,#538,#539);
#436=AXIS2_PLACEMENT_3D('',#659,#543,#544);
#437=AXIS2_PLACEMENT_3D('',#660,#545,#546);
#438=AXIS2_PLACEMENT_3D('',#661,#547,#548);
#439=AXIS2_PLACEMENT_3D('',#662,#549,#550);
#440=AXIS2_PLACEMENT_3D('',#663,#551,#552);
#441=DIRECTION('axis',(0.,0.,1.));
#442=DIRECTION('refdir',(1.,0.,0.));
#443=DIRECTION('center_axis',(0.,0.,1.));
#444=DIRECTION('ref_axis',(1.,0.,0.));
#445=DIRECTION('',(0.,1.,0.));
#446=DIRECTION('',(1.,0.,0.));
#447=DIRECTION('',(0.,-1.,0.));
#448=DIRECTION('',(1.,0.,0.));
#449=DIRECTION('center_axis',(1.,0.,0.));
#450=DIRECTION('ref_axis',(0.,1.,0.));
#451=DIRECTION('center_axis',(-1.,0.,0.));
#452=DIRECTION('ref_axis',(0.,1.,0.));
#453=DIRECTION('',(1.,0.,0.));
#454=DIRECTION('center_axis',(1.,0.,0.));
#455=DIRECTION('ref_axis',(0.,1.,0.));
#456=DIRECTION('center_axis',(0.,1.,-4.08357894114977E-16));
#457=DIRECTION('ref_axis',(0.,4.08357894114977E-16,1.));
#458=DIRECTION('',(0.,-4.08357894114977E-16,-1.));
#459=DIRECTION('',(1.,0.,0.));
#460=DIRECTION('',(0.,4.08357894114977E-16,1.));
#461=DIRECTION('center_axis',(1.,0.,0.));
#462=DIRECTION('ref_axis',(0.,0.995273388289296,-0.0971127312104072));
#463=DIRECTION('center_axis',(1.,0.,0.));
#464=DIRECTION('ref_axis',(0.,0.995273388289296,-0.0971127312104072));
#465=DIRECTION('',(1.,0.,0.));
#466=DIRECTION('center_axis',(-1.,0.,0.));
#467=DIRECTION('ref_axis',(0.,0.995273388289296,-0.0971127312104072));
#468=DIRECTION('center_axis',(0.,0.258819045102521,0.965925826289068));
#469=DIRECTION('ref_axis',(1.,0.,0.));
#470=DIRECTION('',(0.,0.965925826289068,-0.258819045102521));
#471=DIRECTION('',(1.,0.,0.));
#472=DIRECTION('',(0.,-0.965925826289068,0.258819045102521));
#473=DIRECTION('center_axis',(0.,-8.74191357972564E-17,1.));
#474=DIRECTION('ref_axis',(1.,0.,0.));
#475=DIRECTION('',(0.,1.,8.74191357972564E-17));
#476=DIRECTION('',(1.,0.,0.));
#477=DIRECTION('',(0.,-1.,-8.74191357972564E-17));
#478=DIRECTION('center_axis',(0.,-0.258819045102521,0.965925826289068));
#479=DIRECTION('ref_axis',(1.,0.,0.));
#480=DIRECTION('',(0.,0.965925826289068,0.258819045102521));
#481=DIRECTION('',(1.,0.,0.));
#482=DIRECTION('',(0.,-0.965925826289068,-0.258819045102521));
#483=DIRECTION('center_axis',(1.,0.,0.));
#484=DIRECTION('ref_axis',(0.,-0.382774017020482,0.923842005915516));
#485=DIRECTION('center_axis',(1.,0.,0.));
#486=DIRECTION('ref_axis',(0.,-0.382774017020482,0.923842005915516));
#487=DIRECTION('',(1.,0.,0.));
#488=DIRECTION('center_axis',(-1.,0.,0.));
#489=DIRECTION('ref_axis',(0.,-0.382774017020482,0.923842005915516));
#490=DIRECTION('center_axis',(0.,-1.,4.08326593407918E-16));
#491=DIRECTION('ref_axis',(0.,-4.08326593407918E-16,-1.));
#492=DIRECTION('',(0.,4.08326593407918E-16,1.));
#493=DIRECTION('',(1.,0.,0.));
#494=DIRECTION('',(0.,-4.08326593407918E-16,-1.));
#495=DIRECTION('center_axis',(1.,0.,0.));
#496=DIRECTION('ref_axis',(0.,0.033334726291825,0.999444243578925));
#497=DIRECTION('center_axis',(-1.,0.,0.));
#498=DIRECTION('ref_axis',(0.,0.033334726291825,0.999444243578925));
#499=DIRECTION('',(1.,0.,0.));
#500=DIRECTION('center_axis',(1.,0.,0.));
#501=DIRECTION('ref_axis',(0.,0.033334726291825,0.999444243578925));
#502=DIRECTION('center_axis',(0.,0.,1.));
#503=DIRECTION('ref_axis',(1.,0.,0.));
#504=DIRECTION('',(0.,1.,0.));
#505=DIRECTION('',(1.,0.,0.));
#506=DIRECTION('',(0.,-1.,0.));
#507=DIRECTION('center_axis',(1.,0.,0.));
#508=DIRECTION('ref_axis',(0.,1.,0.));
#509=DIRECTION('center_axis',(-1.,0.,0.));
#510=DIRECTION('ref_axis',(0.,1.,0.));
#511=DIRECTION('',(1.,0.,0.));
#512=DIRECTION('center_axis',(1.,0.,0.));
#513=DIRECTION('ref_axis',(0.,1.,0.));
#514=DIRECTION('center_axis',(0.,1.,-5.55082593725628E-16));
#515=DIRECTION('ref_axis',(0.,5.55082593725628E-16,1.));
#516=DIRECTION('',(0.,-5.55082593725628E-16,-1.));
#517=DIRECTION('',(1.,0.,0.));
#518=DIRECTION('',(0.,5.55082593725628E-16,1.));
#519=DIRECTION('center_axis',(1.,0.,0.));
#520=DIRECTION('ref_axis',(0.,-1.98359847066401E-13,-1.));
#521=DIRECTION('center_axis',(-1.,0.,0.));
#522=DIRECTION('ref_axis',(0.,-1.98359847066401E-13,-1.));
#523=DIRECTION('',(1.,0.,0.));
#524=DIRECTION('center_axis',(1.,0.,0.));
#525=DIRECTION('ref_axis',(0.,-1.98359847066401E-13,-1.));
#526=DIRECTION('center_axis',(0.,0.,-1.));
#527=DIRECTION('ref_axis',(-1.,0.,0.));
#528=DIRECTION('',(0.,-1.,0.));
#529=DIRECTION('',(1.,0.,0.));
#530=DIRECTION('',(0.,1.,0.));
#531=DIRECTION('center_axis',(1.,0.,0.));
#532=DIRECTION('ref_axis',(0.,-1.,2.00395255944881E-13));
#533=DIRECTION('center_axis',(-1.,0.,0.));
#534=DIRECTION('ref_axis',(0.,-1.,2.00395255944881E-13));
#535=DIRECTION('',(1.,0.,0.));
#536=DIRECTION('center_axis',(1.,0.,0.));
#537=DIRECTION('ref_axis',(0.,-1.,2.00395255944881E-13));
#538=DIRECTION('center_axis',(0.,-1.,0.));
#539=DIRECTION('ref_axis',(0.,0.,-1.));
#540=DIRECTION('',(0.,0.,1.));
#541=DIRECTION('',(1.,0.,0.));
#542=DIRECTION('',(0.,0.,-1.));
#543=DIRECTION('center_axis',(1.,0.,0.));
#544=DIRECTION('ref_axis',(0.,4.05601478329888E-13,1.));
#545=DIRECTION('center_axis',(-1.,0.,0.));
#546=DIRECTION('ref_axis',(0.,4.05601478329888E-13,1.));
#547=DIRECTION('center_axis',(1.,0.,0.));
#548=DIRECTION('ref_axis',(0.,4.05601478329888E-13,1.));
#549=DIRECTION('center_axis',(1.,0.,0.));
#550=DIRECTION('ref_axis',(0.,0.,-1.));
#551=DIRECTION('center_axis',(1.,0.,0.));
#552=DIRECTION('ref_axis',(0.,0.,-1.));
#553=CARTESIAN_POINT('',(0.,0.,0.));
#554=CARTESIAN_POINT('Origin',(0.,-42.25,38.));
#555=CARTESIAN_POINT('',(1000.,-42.25,38.));
#556=CARTESIAN_POINT('',(1000.,-38.4,38.));
#557=CARTESIAN_POINT('',(1000.,-38.4,38.));
#558=CARTESIAN_POINT('',(0.,-38.4,38.));
#559=CARTESIAN_POINT('',(0.,-38.4,38.));
#560=CARTESIAN_POINT('',(0.,-42.25,38.));
#561=CARTESIAN_POINT('',(0.,-38.4,38.));
#562=CARTESIAN_POINT('',(0.,-42.25,38.));
#563=CARTESIAN_POINT('Origin',(0.,-38.399999536787,35.0000000000013));
#564=CARTESIAN_POINT('',(1000.,-35.4,35.0000000000013));
#565=CARTESIAN_POINT('Origin',(1000.,-38.399999536787,35.0000000000013));
#566=CARTESIAN_POINT('',(0.,-35.4,35.0000000000013));
#567=CARTESIAN_POINT('',(0.,-35.4,35.0000000000013));
#568=CARTESIAN_POINT('Origin',(0.,-38.399999536787,35.0000000000013));
#569=CARTESIAN_POINT('Origin',(0.,-35.4,35.0000000000013));
#570=CARTESIAN_POINT('',(1000.,-35.4,13.25));
#571=CARTESIAN_POINT('',(1000.,-35.4,13.25));
#572=CARTESIAN_POINT('',(0.,-35.4,13.25));
#573=CARTESIAN_POINT('',(0.,-35.4,13.25));
#574=CARTESIAN_POINT('',(0.,-35.4,13.25));
#575=CARTESIAN_POINT('Origin',(0.,-32.4141798351331,12.9586618063689));
#576=CARTESIAN_POINT('',(1000.,-33.5625018861942,10.1871357886232));
#577=CARTESIAN_POINT('Origin',(1000.,-32.4141798351331,12.9586618063689));
#578=CARTESIAN_POINT('',(0.,-33.5625018861942,10.1871357886232));
#579=CARTESIAN_POINT('',(0.,-33.5625018861942,10.1871357886232));
#580=CARTESIAN_POINT('Origin',(0.,-32.4141798351331,12.9586618063689));
#581=CARTESIAN_POINT('Origin',(0.,-33.5625018861942,10.1871357886232));
#582=CARTESIAN_POINT('',(1000.,-25.4,8.00000000000001));
#583=CARTESIAN_POINT('',(1000.,-25.4,8.00000000000001));
#584=CARTESIAN_POINT('',(0.,-25.4,8.00000000000001));
#585=CARTESIAN_POINT('',(0.,-25.4,8.00000000000001));
#586=CARTESIAN_POINT('',(0.,-25.4,8.00000000000001));
#587=CARTESIAN_POINT('Origin',(0.,-25.4,8.00000000000001));
#588=CARTESIAN_POINT('',(1000.,25.4,8.00000000000001));
#589=CARTESIAN_POINT('',(1000.,25.4,8.00000000000001));
#590=CARTESIAN_POINT('',(0.,25.4,8.00000000000001));
#591=CARTESIAN_POINT('',(0.,25.4,8.00000000000001));
#592=CARTESIAN_POINT('',(0.,25.4,8.00000000000001));
#593=CARTESIAN_POINT('Origin',(0.,25.4,8.00000000000001));
#594=CARTESIAN_POINT('',(1000.,33.5625018861942,10.1871357886233));
#595=CARTESIAN_POINT('',(1000.,33.5625018861942,10.1871357886233));
#596=CARTESIAN_POINT('',(0.,33.5625018861942,10.1871357886233));
#597=CARTESIAN_POINT('',(0.,33.5625018861942,10.1871357886233));
#598=CARTESIAN_POINT('',(0.,33.5625018861942,10.1871357886233));
#599=CARTESIAN_POINT('Origin',(0.,32.4141798351331,12.9586618063689));
#600=CARTESIAN_POINT('',(1000.,35.4,13.25));
#601=CARTESIAN_POINT('Origin',(1000.,32.4141798351331,12.9586618063689));
#602=CARTESIAN_POINT('',(0.,35.4,13.25));
#603=CARTESIAN_POINT('',(0.,35.4,13.25));
#604=CARTESIAN_POINT('Origin',(0.,32.4141798351331,12.9586618063689));
#605=CARTESIAN_POINT('Origin',(0.,35.4,13.25));
#606=CARTESIAN_POINT('',(1000.,35.4,35.0016672692645));
#607=CARTESIAN_POINT('',(1000.,35.4,35.0016672692645));
#608=CARTESIAN_POINT('',(0.,35.4,35.0016672692645));
#609=CARTESIAN_POINT('',(0.,35.4,35.0016672692645));
#610=CARTESIAN_POINT('',(0.,35.4,35.0016672692645));
#611=CARTESIAN_POINT('Origin',(0.,38.3999958211246,35.0016672692645));
#612=CARTESIAN_POINT('',(1000.,38.5,38.));
#613=CARTESIAN_POINT('Origin',(1000.,38.3999958211246,35.0016672692645));
#614=CARTESIAN_POINT('',(0.,38.5,38.));
#615=CARTESIAN_POINT('',(0.,38.5,38.));
#616=CARTESIAN_POINT('Origin',(0.,38.3999958211246,35.0016672692645));
#617=CARTESIAN_POINT('Origin',(0.,38.5,38.));
#618=CARTESIAN_POINT('',(1000.,42.35,38.));
#619=CARTESIAN_POINT('',(1000.,42.35,38.));
#620=CARTESIAN_POINT('',(0.,42.35,38.));
#621=CARTESIAN_POINT('',(0.,42.35,38.));
#622=CARTESIAN_POINT('',(0.,42.35,38.));
#623=CARTESIAN_POINT('Origin',(0.,42.2500000000012,35.0016671298882));
#624=CARTESIAN_POINT('',(1000.,45.25,35.0016671298882));
#625=CARTESIAN_POINT('Origin',(1000.,42.2500000000012,35.0016671298882));
#626=CARTESIAN_POINT('',(0.,45.25,35.0016671298882));
#627=CARTESIAN_POINT('',(0.,45.25,35.0016671298882));
#628=CARTESIAN_POINT('Origin',(0.,42.2500000000012,35.0016671298882));
#629=CARTESIAN_POINT('Origin',(0.,45.25,35.0016671298882));
#630=CARTESIAN_POINT('',(1000.,45.25,3.));
#631=CARTESIAN_POINT('',(1000.,45.25,3.));
#632=CARTESIAN_POINT('',(0.,45.25,3.));
#633=CARTESIAN_POINT('',(0.,45.25,3.));
#634=CARTESIAN_POINT('',(0.,45.25,3.));
#635=CARTESIAN_POINT('Origin',(0.,42.2500000000006,2.9999999999994));
#636=CARTESIAN_POINT('',(1000.,42.25,0.));
#637=CARTESIAN_POINT('Origin',(1000.,42.2500000000006,2.9999999999994));
#638=CARTESIAN_POINT('',(0.,42.25,0.));
#639=CARTESIAN_POINT('',(0.,42.25,0.));
#640=CARTESIAN_POINT('Origin',(0.,42.2500000000006,2.9999999999994));
#641=CARTESIAN_POINT('Origin',(0.,42.25,0.));
#642=CARTESIAN_POINT('',(1000.,-42.25,0.));
#643=CARTESIAN_POINT('',(1000.,-42.25,0.));
#644=CARTESIAN_POINT('',(0.,-42.25,0.));
#645=CARTESIAN_POINT('',(0.,-42.25,0.));
#646=CARTESIAN_POINT('',(0.,-42.25,0.));
#647=CARTESIAN_POINT('Origin',(0.,-42.2500000000006,2.9999999999994));
#648=CARTESIAN_POINT('',(1000.,-45.25,3.));
#649=CARTESIAN_POINT('Origin',(1000.,-42.2500000000006,2.9999999999994));
#650=CARTESIAN_POINT('',(0.,-45.25,3.));
#651=CARTESIAN_POINT('',(0.,-45.25,3.));
#652=CARTESIAN_POINT('Origin',(0.,-42.2500000000006,2.9999999999994));
#653=CARTESIAN_POINT('Origin',(0.,-45.25,3.));
#654=CARTESIAN_POINT('',(1000.,-45.25,35.));
#655=CARTESIAN_POINT('',(1000.,-45.25,35.));
#656=CARTESIAN_POINT('',(0.,-45.25,35.));
#657=CARTESIAN_POINT('',(0.,-45.25,35.));
#658=CARTESIAN_POINT('',(0.,-45.25,35.));
#659=CARTESIAN_POINT('Origin',(0.,-42.2500000000012,35.0000000000012));
#660=CARTESIAN_POINT('Origin',(1000.,-42.2500000000012,35.0000000000012));
#661=CARTESIAN_POINT('Origin',(0.,-42.2500000000012,35.0000000000012));
#662=CARTESIAN_POINT('Origin',(0.,0.000499468864291197,12.8973835071663));
#663=CARTESIAN_POINT('Origin',(1000.,0.00049946886429196,12.8973835071663));
#664=UNCERTAINTY_MEASURE_WITH_UNIT(LENGTH_MEASURE(0.01),#668,
'DISTANCE_ACCURACY_VALUE',
'Maximum model space distance between geometric entities at asserted c
onnectivities');
#665=UNCERTAINTY_MEASURE_WITH_UNIT(LENGTH_MEASURE(0.01),#668,
'DISTANCE_ACCURACY_VALUE',
'Maximum model space distance between geometric entities at asserted c
onnectivities');
#666=(
GEOMETRIC_REPRESENTATION_CONTEXT(3)
GLOBAL_UNCERTAINTY_ASSIGNED_CONTEXT((#664))
GLOBAL_UNIT_ASSIGNED_CONTEXT((#668,#670,#671))
REPRESENTATION_CONTEXT('','3D')
);
#667=(
GEOMETRIC_REPRESENTATION_CONTEXT(3)
GLOBAL_UNCERTAINTY_ASSIGNED_CONTEXT((#665))
GLOBAL_UNIT_ASSIGNED_CONTEXT((#668,#670,#671))
REPRESENTATION_CONTEXT('','3D')
);
#668=(
LENGTH_UNIT()
NAMED_UNIT(*)
SI_UNIT(.MILLI.,.METRE.)
);
#669=(
LENGTH_UNIT()
NAMED_UNIT(*)
SI_UNIT(.CENTI.,.METRE.)
);
#670=(
NAMED_UNIT(*)
PLANE_ANGLE_UNIT()
SI_UNIT($,.RADIAN.)
);
#671=(
NAMED_UNIT(*)
SI_UNIT($,.STERADIAN.)
SOLID_ANGLE_UNIT()
);
#672=SHAPE_DEFINITION_REPRESENTATION(#673,#674);
#673=PRODUCT_DEFINITION_SHAPE('',$,#676);
#674=SHAPE_REPRESENTATION('',(#404),#666);
#675=PRODUCT_DEFINITION_CONTEXT('part definition',#680,'design');
#676=PRODUCT_DEFINITION('UP 070.0780','UP 070.0780',#677,#675);
#677=PRODUCT_DEFINITION_FORMATION('',$,#682);
#678=PRODUCT_RELATED_PRODUCT_CATEGORY('UP 070.0780','UP 070.0780',(#682));
#679=APPLICATION_PROTOCOL_DEFINITION('international standard',
'automotive_design',2009,#680);
#680=APPLICATION_CONTEXT(
'Core Data for Automotive Mechanical Design Process');
#681=PRODUCT_CONTEXT('part definition',#680,'mechanical');
#682=PRODUCT('UP 070.0780','UP 070.0780','U-F\X\FChrungsprofil Edelsta
hl',(#681));
#683=PRESENTATION_STYLE_ASSIGNMENT((#684));
#684=SURFACE_STYLE_USAGE(.BOTH.,#687);
#685=SURFACE_STYLE_RENDERING_WITH_PROPERTIES($,#691,(#686));
#686=SURFACE_STYLE_TRANSPARENT(0.);
#687=SURFACE_SIDE_STYLE('',(#688,#685));
#688=SURFACE_STYLE_FILL_AREA(#689);
#689=FILL_AREA_STYLE('',(#690));
#690=FILL_AREA_STYLE_COLOUR('',#691);
#691=COLOUR_RGB('',0.87843137254902,0.874509803921569,0.858823529411765);
ENDSEC;
END-ISO-10303-21;
